» » »

Shadows - Golden Street Tabs

Artists:  A B C D E F G H I J K L M N O P Q R S T U V W X Y Z # 

Golden Street Tabs

(ver. 1) Click to play this song!
Shadows
 Rating:
4/5 (4 votes)

 Golden Street lessons Tabs too difficult? Try these video lessons and learn fast
 
                Intro
---------------------|-------------------------|------------------------------
---------------------|-------------------------|------------------------------
---------------------|-------------------------|------------------------------
----------------0----|------------------------0|------------------------------
---7---7---7------2--|---7---7---7------0-2-3--|------------------------------
-5---5---5----3-----3|-5---5---5---3--3--------|------------------------------

Verse
------------|------------|------------|------------|--------------------------
------------|------------|------------|------------|--------------------------
------------|------------|------------|------------|--------------------------
-2-2-0------|-----3-7-5-5|-2-2-0------|-----3-7-5-5|--------------------------
-------3-0-0|-0-5--------|-------3-0-0|-0-5--------|--------------------------
------------|------------|------------|------------|--------------------------

Turnaround
------------------|------------------|----------------------------------------
------------------|------------------|----------------------------------------
-5-5---3-5-3-5-3-5|------------------|----------------------------------------
-----5------------|-5-5---3-5-3-5-3-5|-2-2-0------------------0---------------
------------------|-----3------------|-------3-0-0------0-2-3-----------------
------------------|------------------|----------------3-----------------------


------------|------------|------------|------------|--------------------------
------------|------------|------------|------------|--------------------------
------------|------------|------------|------------|--------------------------
-2-2-0------|-----3-7-5-5|-2-2-0------|-----3-7-5-5|--------------------------
-------3-0-0|-0-5--------|-------3-0-0|-0-5--------|--------------------------
------------|------------|------------|------------|--------------------------


------------------|------------------|----------------------------------------
------------------|------------------|----------------------------------------
-5-5---3-5-3-5-3-5|------------------|----------------------------------------
-----5------------|-5-5---3-5-3-5-3-5|-2-2-0----------------------------------
------------------|-----3------------|-------3-0-0-----0----------------------
------------------|------------------|---------------3------------------------

Bridge
-----------------1-3-4-3|-0-3---0----|---------------1-3-4-3--3---------------
----------1-4--4--------|-----1-----1|---------1-4-4----------3---------------
-1-1--1-3---------------|---------0--|-1-1-1-3----------------4---------------
------------------------|------------|------------------------5---------------
------------------------|------------|----------------------------------------
------------------------|------------|----------------------------------------


------------|-------5-3----|--------8|-8-------|---5---5|---------------------
-5-5-3------|-1---1-----3--|------8--|---10----|-----6--|---------------------
-------5\2-2|---2---------4|----9----|------9-9|-5------|---------------------
------------|--------------|-10------|---------|--------|---------------------
------------|--------------|---------|---------|--------|---------------------
------------|--------------|---------|---------|--------|---------------------


-------7|------------------|------------------|-------------------------------
-----8--|------------------|------------------|-------------------------------
---7----|-5-5---3-5-3-5-3-5|------------------|-------------------------------
-9------|-----5------------|-5-5---3-5-3-5-3-5|-2-2-0-------------------------
--------|------------------|-----3------------|-------3-0-0----0--------------
--------|------------------|------------------|--------------3----------------

Bridge
---------------1-3-4-3|-0-3---0----|---------------1-3-4-3|-------------------
---------1-4-4--------|-----1-----1|---------1-4-4--------|-------------------
-1-1-1-3--------------|---------0--|-1-1-1-3--------------|-------------------
----------------------|------------|----------------------|-------------------
----------------------|------------|----------------------|-------------------
----------------------|------------|----------------------|-------------------


-----7---7\-5|-12-12-10--8--------8|---5---5--------7|------------------------
-6/8---8-8\-6|-13-13-12--10----10--|-----6--------8--|------------------------
-------------|---------------9-----|-5----------7----|------------------------
-------------|---------------------|----------9------|------------------------
-------------|---------------------|-----------------|------------------------
-------------|---------------------|-----------------|------------------------


------------------|------------------|----------------------------------------
------------------|------------------|----------------------------------------
-5-5---3-5-3-5-3-5|------------------|----------------------------------------
-----5------------|-5-5---3-5-3-5-3-5|-2-2---------2-2-0----------------------
------------------|-----3------------|-----0-3-0-0-------3-3-0----------------
------------------|------------------|----------------------------------------


------------|-----------------------------------------------------------------
------------|-----------------------------------------------------------------
------------|-----2-----------------------------------------------------------
-2-2--------|-------2---------------------------------------------------------
-----0-3-0-0|-0-0-------------------------------------------------------------
------------|-----------------------------------------------------------------
            
Submit corrections


        Golden Street lessons Hard to play? Try these video lessons and learn fast Golden Street lessons
        
↑ Back to top | Tablatures and chords for acoustic guitar and electric guitar, ukulele, drums are parodies/interpretations of the original songs. You may use it for private study, scholarship, research or language learning purposes only