» » »

Shadows - Frightened City Tabs

Artists:  A B C D E F G H I J K L M N O P Q R S T U V W X Y Z # 

Frightened City Tabs

(ver. 1) Click to play this song!
Shadows
 Rating:
4.2/5 (5 votes)

 Frightened City lessons Tabs too difficult? Try these video lessons and learn fast
 
                ---0--------0----0-------0----0--------0----0---------0|----------------------
-----4b(5)---------4b(5)--------4b(5)----------4b(5)---|----------------------
-2-------------2------------2------------2-------------|----------------------
-------------------------------------------------------|------------2-----2v--
-------------------------------------------------------|---0--2--3-----2v-----
-------------------------------------------------------|0---------------------
                                                                              

------------------------4--2-----4--2--4--2-----4--2--4--2------------------|-
-------------2------2v--------3--------------3--------------3--2--0---------|-
----0--2--3-----2v---------------------------------------------------2-----0|-
-0----------------------------------------------------------------------0---|-
                                                                              

-----------------------------------------------4--2-----4--2--4--2-----4--2---
-------------2------2v--------------2------2v--------3--------------3---------
----0--2--3-----2v---------0--2--3-----2v-------------------------------------
-0----------------------0-----------------------------------------------------
                                                                              

-----------------------|-----12--14--16--14--12---------------------12--14----
-----------------------|-12----------------------14--12-----12--12------------
-4--2------------------|---------------------------------11-------------------
-------3--2--0---------|------------------------------------------------------
----------------2-----0|------------------------------------------------------
-------------------0---|------------------------------------------------------
                                                                              





                     (....whammy bar bends......)  
-15--14--12------------------------------12b--12b--12--12--12--12|------------
-------------14--12------10b----8b----6b-------------------------|------------
---------------------11b-----9b----7b----------------------------|------------
                                                                              

------------------------------------4--2-----4--2--4--2-----4--2--4--2--------
--2------2v--------------2------2v--------3--------------3--------------3--2--
-----2v---------0--2--3-----2v------------------------------------------------
-------------0----------------------------------------------------------------
                                                                              

------------|-----12------12--------------------------------------------------
------------|-13------13------13----------------------------------13----------
------------|---------------------14------14b(16)r14----------14------14--12--
--0---------|-------------------------14--------------14--14------------------
-----2-----0|-----------------------------------------------------------------
--------0---|-----------------------------------------------------------------
                                                                              

-------|-----12--14--16--14--12----------------------12--14--15--14--12-------
-------|-12----------------------14--12------12--12----------------------14---
-14--14|---------------------------------11-----------------------------------
-------|----------------------------------------------------------------------
-------|----------------------------------------------------------------------
-------|----------------------------------------------------------------------
                                                                              




     (....whammy bar vibrato....)
-------------------------12v-12v-12--12--12--12|------------------------------
-12------10v----8v----6v-----------------------|------------------------------
-----11v-----9v----7v--------------------------|------------------------------
-----------------------------------------------|-------------2------2v--------
-----------------------------------------------|----0--2--3-----2v---------0--
-----------------------------------------------|-0----------------------0-----
                                                                              
                                                   (...Base Guitar...)
-------------------4--2-----4--2--4--2-----4--2--4--2-------------------------
--------2------2v--------3--------------3--------------3--2--0----------------
--2--3-----2v---------------------------------------------------2-----0-------
                                                

------------------------|----0-------0-----0-------0-----0-------0------------
------------------------|-------4b5-----------4b5-----------4b5---------------
-4--2-------------------|-2-------------2-------------2-----------------------
-------3--2--0----------|-----------------------------------------------------
----------------2-----0v|-----------------------------------------------------
-------------------0----|-----------------------------------------------------
                                                                  (fade out)
            
Submit corrections


        Frightened City lessons Hard to play? Try these video lessons and learn fast Frightened City lessons
        
↑ Back to top | Tablatures and chords for acoustic guitar and electric guitar, ukulele, drums are parodies/interpretations of the original songs. You may use it for private study, scholarship, research or language learning purposes only