» » »

Shadows - Foot Tapper Bass

Artists:  A B C D E F G H I J K L M N O P Q R S T U V W X Y Z # 

Foot Tapper Bass

(ver. 1) Click to play this song!
Shadows
 Rating:
4/5 (4 votes)

 Foot Tapper lessons Tabs too difficult? Try these video lessons and learn fast
 
                The Shadows
Written by Hank Marvin and Bruce Welch; released as a single with "The Breeze 
And I" as the B-side, and on the soundtrack for the film "Summer Holiday".

Intro:
G|------- ------- ------- -------|------- ------- ------- -------|
D|------------2------------------|-------------------------------|
A|3-----------------------3------|------------3------------------|
E|-------------------------------|5-----------------------5------|



G|------- ----2-- ------- -------|------- ------- ------- -------|
D|3-----------------------3------|5-------5----------------------|
A|-------------------------------|-------------------------------|
E|-------------------------------|-------------------------------|



G|------- ------- ------- -------|------- ------- ------- -------|
D|------------2------------------|-------------------------------|
A|3-----------------------3------|------------3------------------|
E|-------------------------------|5-----------------------5------|



G|------- ----2-- ------- -------|------- ------- ------- -------|
D|3-----------------------3------|5-------5----------------------|
A|-------------------------------|-------------------------------|
E|-------------------------------|-------------------------------|


Verse:
G|------- ------- ------- -------|------- ------- ------- -------|
D|-------------------------------|-------------------------------|
A|3------------------------------|3-------------------3----------|
E|----------------3--------------|----------------3--------------|



G|------- ------- ------- -------|------- ------- ------- -------|
D|-------------------------------|-------------------------------|
A|----------------2-------5------|----------------2-------5------|
E|3------------------------------|3------------------------------|



G|------- ------- ------- -------|------- ------- ------- -------|
D|----------------2-------5------|----------------2-------5------|
A|3------------------------------|3------------------------------|
E|-------------------------------|-------------------------------|



G|------- ------- 2------ -------|0------ 0------ 2------ 0------|
D|3-----------------------3------|-------------------------------|
A|-------------------------------|-------------------------------|
E|-------------------------------|-------------------------------|



G|------- ------- ------- -------|------- ------- ------- -------|
D|------------2-------2----------|-------------------------------|
A|3-------3---------------3------|------------3------------------|
E|-------------------------------|5-----------------------5---3--|



G|------- ----2-- ----2-- -------|------- ------- ------- -------|
D|3-------3---------------3------|5-------5----------------------|
A|-------------------------------|-------------------------------|
E|-------------------------------|-------------------------------|


Verse:
G|------- ------- ------- -------|------- ------- ------- -------|
D|-------------------------------|-------------------------------|
A|3------------------------------|3-----------------------3------|
E|----------------3--------------|----------------3--------------|



G|------- ------- ------- -------|------- ------- ------- -------|
D|-------------------------------|-------------------------------|
A|----------------2-------5------|----------------2-------5------|
E|3------------------------------|3------------------------------|



G|------- ------- ------- -------|------- ------- ------- -------|
D|----------------2-------5------|----------------2-------5------|
A|3------------------------------|3------------------------------|
E|-------------------------------|-------------------------------|



G|------- ------- 2------ -------|0------ 0------ 2------ 0------|
D|3-------3---------------3------|-------------------------------|
A|-------------------------------|-------------------------------|
E|-------------------------------|-------------------------------|



G|------- ------- ------- -------|------- ------- ------- -------|
D|------------2-------2----------|-------------------------------|
A|3-------3---------------3------|------------3-------3---3------|
E|-------------------------------|5-------5----------------------|



G|------- ------- ------- -------|------- ------- ------- -------|
D|-------------------------------|-------------------------------|
A|3-------3----------------------|3-------3-------3-------3------|
E|----------------3-------3------|-------------------------------|


Refrain:
G|------- ------- ------- -------|------- ------- ------- -------|
D|5-------5-------3-------3------|2-------2----------------------|
A|-------------------------------|----------------5-------5------|
E|-------------------------------|-------------------------------|



G|------- ------- ------- -------|------- ------- ------- -------|
D|-------------------------------|-------------------------------|
A|3-------3----------------------|3-------3---------------3------|
E|----------------3-------3------|------------3-------3----------|



G|------- ------- ------- -------|------- ------- ------- -------|
D|5-------5-------3-------3------|2-------2----------------------|
A|-------------------------------|----------------5-------5------|
E|-------------------------------|-------------------------------|



G|------- ------- ------- -------|------- ------- ------- -------|
D|-------------------------------|-------------------------------|
A|3-----------3------------------|3-----------3---3-------3------|
E|----------------3-------3------|-------------------------------|



G|------- ------- ------- -------|------- ------- ------- -------|
D|-------------------------------|-------------------------------|
A|-------------------------------|-------------------------------|
E|5-------5-------5---5----------|5---5-------5-----------5------|



G|------- ------- ------- -------|------- ------- ------- -------|
D|-------------------------------|-------------------------------|
A|-------------------------------|-------------------------------|
E|1-------1-------1---1----------|1-----------1-----------1------|



G|------- ------- ------- -------|------- ------- ------- -------|
D|-------------------------------|-------------------------------|
A|5-------5---5-------5---5------|5-------5---5-------5---5------|
E|-------------------------------|-------------------------------|



G|------- ------- ------- -------|------- ------- ------- -------|
D|5-------5---5-------5---5------|5-------5----------------------|
A|-------------------------------|-------------------------------|
E|-------------------------------|-------------------------------|


Verse:
G|------- ------- ------- -------|------- ------- ------- -------|
D|-------------------------------|-------------------------------|
A|3------------------------------|3-------------------3---2------|
E|----------------3--------------|------------3---------------5--|



G|------- ------- ------- -------|------- ------- ------- -------|
D|-------------------------------|-------------------------------|
A|----------------2-------5------|----------------2-------5------|
E|3------------------------------|3-----------3------------------|



G|------- ------- ------- -------|------- ------- ------- -------|
D|----------------2-------5------|----------------2-------5------|
A|3------------------------------|3-----------3------------------|
E|-------------------------------|-------------------------------|



G|------- ------- 2------ -------|0------ 0------ 2------ 0------|
D|3-----------------------3------|-------------------------------|
A|-------------------------------|-------------------------------|
E|-------------------------------|-------------------------------|



G|------- ------- ------- -------|------- ------- ------- -------|
D|------------2------------------|-------------------------------|
A|3-------3---------------3------|------------3-------3----------|
E|-------------------------------|5-------5---------------5------|



G|------- ------- ------- -------|------- ------- ------- -------|
D|-------------------------------|------------------------2---5--|
A|3-------3----------------------|3-------3-------3--------------|
E|----------------3-------3------|-------------------------------|


Bridge:
G|------- ------- ------- -------|------- ------- ------- -------|
D|-------------------------------|-------------------------------|
A|3-------3----------------------|-------------------------------|
E|-------------------------------|-------------------------------|



G|------- ------- ------- -------|------- ------- ------- -------|
D|-------------------------------|-------------------------------|
A|-------------------------------|-------------------------------|
E|3-------3----------------------|-------------------------------|



G|------- ------- ------- -------|------- ------- ------- -------|
D|-------------------------------|-------------------------------|
A|3-------3----------------------|-------------------------------|
E|-------------------------------|-------------------------------|



G|------- ------- ------- -------|------- ------- ------- -------|
D|3-------3----------------------|-------------------------------|
A|-------------------------------|-------------------------------|
E|-------------------------------|-------------------------------|



G|------- ------- ------- -------|------- ------- ------- -------|
D|-------------------------------|-------------------------------|
A|3-------3----------------------|-------------------------------|
E|------------3------------------|-------------------------------|



G|------- ------- ------- -------|------- ------- ------- -------|
D|-------------------------------|-------------------------------|
A|-------------------------------|-------------------------------|
E|3-------3----------------------|-------------------------------|



G|------- ------- ------- -------|------- ------- ------- -------|
D|-------------------------------|-------------------------------|
A|3------------------------------|3------------------------------|
E|----------------3--------------|----------------3--------------|



G|------- ------- ------- -------|------- ------- ------- -------|
D|-------------------------------|-------------------------------|
A|3------------------------------|3------------------------------|
E|----------------3--------------|-------------------------------|


Refrain:
G|------- ------- ------- -------|------- ------- ------- -------|
D|5---------------3-------3------|2-------2----------------------|
A|-------------------------------|----------------5-------5------|
E|-------------------------------|-------------------------------|



G|------- ------- ------- -------|------- ------- ------- -------|
D|-------------------------------|-------------------------------|
A|3------------------------------|3-----------3-------3---3------|
E|----------------3--------------|-------------------------------|



G|------- ------- ------- -------|------- ------- ------- -------|
D|5---------------3--------------|2-------2----------------------|
A|-------------------------------|----------------5-------5------|
E|-------------------------------|-------------------------------|



G|------- ------- ------- -------|------- ------- ------- -------|
D|-------------------------------|-------------------------------|
A|3------------------------------|3---------------3-------3------|
E|----------------3--------------|-------------------------------|



G|------- ------- ------- -------|------- ------- ------- -------|
D|-------------------------------|-------------------------------|
A|-------------------------------|-------------------------------|
E|5-------5-------5---5----------|5-----------5-----------5------|



G|------- ------- ------- -------|------- ------- ------- -------|
D|-------------------------------|-------------------------------|
A|-------------------------------|-------------------------------|
E|1-------1-------1---1----------|1-----------1-----------1------|



G|------- ------- ------- -------|------- ------- ------- -------|
D|-------------------------------|-------------------------------|
A|5-------5---5-------5---5------|5-------5---5-------5---5------|
E|-------------------------------|-------------------------------|



G|------- ------- ------- -------|------- ------- ------- -------|
D|5-------5---5-------5---5------|5-------5----------------------|
A|-------------------------------|-------------------------------|
E|-------------------------------|-------------------------------|


Verse:
G|------- ------- ------- -------|------- ------- ------- -------|
D|-------------------------------|-------------------------------|
A|3------------------------------|3-------------------3---2------|
E|----------------3--------------|------------3---------------5--|



G|------- ------- ------- -------|------- ------- ------- -------|
D|-------------------------------|-------------------------------|
A|----------------2--------------|----------------2-------5------|
E|3------------------------------|3------------------------------|



G|------- ------- ------- -------|------- ------- ------- -------|
D|----------------2-------5------|----------------2-------5------|
A|3-----------3------------------|3-----------3------------------|
E|-------------------------------|-------------------------------|



G|------- ------- 2------ -------|0------ 0------ 2------ 0------|
D|3-----------------------3------|-------------------------------|
A|-------------------------------|-------------------------------|
E|-------------------------------|-------------------------------|



G|------- ------- ------- -------|------- ------- ------- -------|
D|------------2------------------|-------------------------------|
A|3-------3---------------3------|------------3-------3----------|
E|-------------------------------|5-------5---------------5------|



G|------- ----2-- ----2-- -------|------- ------- ------- -------|
D|3-----------------------3------|5-------5----------------------|
A|-------------------------------|-------------------------------|
E|-------------------------------|-------------------------------|


Outro:
G|------- ------- ------- -------|------- ------- ------- -------|
D|------------2-------2----------|-------------------------------|
A|3-------3---------------3------|------------3-------3----------|
E|-------------------------------|5-------5---------------5------|



G|------- ------- ------- -------|------- ------- ------- -------|
D|-------------------------------|-------------------------------|
A|3-------3----------------------|3-------3----------------------|
E|----------------3-------3------|-------------------------------|



G|------- ------- ------- -------|------- ------- ------- -------|
D|-------------------------------|-------------------------------|
A|-------------------------------|3-------3----------------------|
E|-------------------------------|-------------------------------|



G|------- ------- ------- -------|------- ------- ------- -------|
D|-------------------------------|-------------------------------|
A|-------------------------------|3-------3----------------------|
E|-------------------------------|-------------------------------|

Please e-mail me for any corrections, or write a comment.
            
Submit corrections


        Foot Tapper lessons Hard to play? Try these video lessons and learn fast Foot Tapper lessons
        
↑ Back to top | Tablatures and chords for acoustic guitar and electric guitar, ukulele, drums are parodies/interpretations of the original songs. You may use it for private study, scholarship, research or language learning purposes only