» » »

Shadows - Deep Purple Tabs

Artists:  A B C D E F G H I J K L M N O P Q R S T U V W X Y Z # 

Deep Purple Tabs

(ver. 1) Click to play this song!
Shadows
 Rating:
4.2/5 (5 votes)

 Deep Purple lessons Tabs too difficult? Try these video lessons and learn fast
 
                e|---------------------------------------------3--1--------------------------|
B|---------------------------------3-------------------------------3---------|
G|-------------------------------3---b5-----2-------5--2--------2------------|
D|--------v5-------v1---------5----------6---------------b5--6---------------|
A|--3--5----3--5------3-4--5-------------------------------------------v5----|
E|---------------------------------------------------------------------------|

e|---------------------------------------------------------------------------|
B|-----------------------------------------------------------3---------------|
G|---------b5--4--3--2--1--------------------------------------b2------------|
D|-------------------------v5--5-4--3-2-1---------------5--6-----------------|
A|--4--5------------------------------------v5--5--4--3------------3---5-----|
E|---------------------------------------------------------------------------|

e|---------------------------------------------------------------------------|
B|----------------------------------------------v8---------------------------|
G|--------------------------------7----------------10------------------7-----|
D|--b10-------------------------8----v10--6--7--------10--7---------7--------|
A|---------------------------10-----------------------------10---11----------|
E|-------8--10--11--8--9--10---------------------------------------------v10-|

e|---------------------------------------------------------------------------|
B|---------------------------------------------------------------------------|
G|---------------------------------------------------------------------------|
D|---------10--9--8--7--6--b5--5---------------------------5--6/7------------|
A|--------------------------------9--8--7--6---5--b5--4--3---------8---------|
E|--9--10--------------------------------------------------------------------|

e|--------------------8------------------------------------------------------|
B|--------------------9------------------------------------------------------|
G|--------------------10-----------------------------------------------------|
D|---------------5----10-----------------------------------------------------|
A|---3---5---3--------8------------------------------------------------------|
E|---------------------------------------------------------------------------|
            
Submit corrections


        Deep Purple lessons Hard to play? Try these video lessons and learn fast Deep Purple lessons
        
↑ Back to top | Tablatures and chords for acoustic guitar and electric guitar, ukulele, drums are parodies/interpretations of the original songs. You may use it for private study, scholarship, research or language learning purposes only