» » »

Shadows - Cricket Bat Boogie Tabs

Artists:  A B C D E F G H I J K L M N O P Q R S T U V W X Y Z # 

Cricket Bat Boogie Tabs

(ver. 1) Click to play this song!
Shadows
 Rating:
4/5 (4 votes)

 Cricket Bat Boogie lessons Tabs too difficult? Try these video lessons and learn fast
 
                Tempo tempo tempo !

-|------------------------------|---------------------------------------------
-|--7-7-7-5-5-5-4-4-4--2-2-2-0--|---------------------------------------------
-|--8---8-6---6-4---4--2---2-1--|---------------------------------------------
-|------------------------------|---2-----2-2---2-2-----2-----2-----2-2-------
-|------------------------------|-----4-2-----4----4------------4-2-----4-----
-|------------------------------|-0-----------------2-4h----0-----------------
                                                                              

--------------2-----2-2---2-2-----2--------------------------------4-----4-4--
-2-2------2-----4-2-----4----4----------2-----2-2---2-2-----2--------6-4------
-----4------0-----------------2-4h--------4-2-----4----4---------2------------
------2-4h----------------------------0-----------------2-4h------------------
                                                                              

----------------------------------------|-------------------------------------
----------------------------------------|-------------------------------------
---4-4-----4----------------------------|-------------------------------------
-6----6--------2-----2-2---2-2-----2----|---2-----2-2---2-2-----2-----2-------
-------4-6h------4-2-----4----4---------|-----4-2-----4----4------------4-2---
-------------0-----------------2-4h-----|-0-----------------2-4h----0---------
                                                                              

--------------------2-----2-2---2-2-----2--------------------------------4----
-2-2---2-2------2-----4-2-----4----4----------2-----2-2---2-2-----2--------6--
-----4-----4------0-----------------2-4h--------4-2-----4----4---------2------
------------2-4h----------------------------0-----------------2-4h------------
                                                                              

-----------------------------------------------|------------------------------
-----------------------------------------------|------------------5-5-7-7-5---
---4-4---4-4------4----------------------------|--4-4-6-6-4-4-6-6-------------
-4-----6-----6--------2-----2-2----------------|------------------------------
--------------4-6h------4-2-----4-2-4-2---2----|------------------------------
--------------------0-------------------4------|------------------------------
                                                                              

----------7-12-16-14-12-11-12--15-12----14-11---------------------------------
-5-7-7-5--9-12-17-16-14-12-14------14-------12--------------------------------
------------------------------------14-------11----------------------9-9-11---
-------------------------------------------------9-9-11-11-9-9-11-11----------
                                                                              

----------------7-12-16-14-12-11-14---7-7-7-7-----|---------------------------
----------------9-12-17-16-14-12-16---7-7-7-7-----|---------------------------
-11-9-9-11-11-9-----------------------8-8-8-8-----|---------------------------
--------------------------------------------------|---2-----2-2---2-2-----2---
--------------------------------------------------|-----4-2-----4----4--------
--------------------------------------------------|-0-----------------2-4h----
                                                                              

-----------------------------2-----2-2---2-2-----2----------------------------
----2-----2-2---2-2------2-----4-2-----4----4----------2-----22----2-2-----2--
------4-2-----4-----4------0-----------------2-4h--------4-2-----4----4-------
--0------------------2-4h----------------------------0-----------------2-4h---
                                                                              

-------------------------------------------------------|--19-16-------17------
-------------------------------------------------------|--------17-------19---
------4-----4-4---4-4-----4----------------------------|-----------16---------
--------6-4-----6----6--------2-----2-2----------------|----------------------
----2-----------------4-6h------4-2-----4-2-4-2---2----|----------------------
----------------------------0-------------------4------|----------------------
                                                           rapido             

-------19-16-------17------------19-16--------17-----------------21-19--------
-16----------17-------19-16-16---------17--------19-16----17--17-------17-----
----16----------16------------------------16-----------16-----------------16--
                                                                              

----------------------16-------12-14b15r14-12---------------------------------
----17-20p19-17----17----12-14----------------14b15r14-12---------------------
-18-------------18----------------------------------------14b15r14-12-15p14---
                                                                              

----------|-10-10-10--9--9--9--7-7-7-5-5-5-4-4-4-2-2-2----------0---0-0-3-0---
----------|-12-12-12--10-10-10-9-9-9-7-7-7-5-5-5-3-3-3-3-2-0-2/4----2-2-2-2---
-12-------|---------------------------------------------------------0-0-0-0---
----14-14-|---------------------------------------------------------2-2-2-2---
----------|-------------------------------------------------------0-----------
----------|-------------------------------------------------------------------
                                                                              

-----0-4-7-4--11-11-11--9-9--9--7-7-7-5-5-5-7-5-4--|--------------------------
-----0-5-9-5--12-12-12-10-10-10-9-9-9-7-7-7-9-7-5--|--------------------------
---1-1---------------------------------------------|--------------------------
---2-2---------------------------------------------|--2-------2-2-------2-----
-0-2-----------------------------------------------|--2---0-1-2-2---0-1-2-----
---0-----------------------------------------------|----4---------4-------4---
                                                     Bass notes - normal for  

-------------/-------------------//---------------///---------------////------
---------------2--------2-2-----2-------------------4-------4-4-----4---------
---------------2---0--1-2-2---0-2-------------------4-1-2-3-4-4-1-2-4---------
-----2-2---0-1---4----------4-----2-------2-2-----2-------------------2-2-----
-0-1-2-2-4------------------------2---0-1-2-2---0-2-------------------2-2-----
------------------------------------4---------4---------------------------4---
 the piano --->   the sliding notes are played on the lead guitar             

-------||---------------------------7/12------||------------------------------
-------||---------5/10--10\5--5/12--7/12------||-------------------5-5-7-7-5--
-------||---------4/9----9\4--4/11------------||---4-4-6-6-4-4-6-6------------
-----2-||-------------------------------------||------------------------------
-0-1-2-||-------------------------------------||------------------------------
-------||-------------------------------------||------------------------------
     --> slidings:/=   //=   ///=  ////= <--  ||-> song continue              

----------7-12-16-14-12-11-12---12---12-11------------------------------------
-5-7-7-5--9-12-17-16-14-12-14----13-------12----------------------------------
----------------------------------12--------11------------------------9-9-11--
--------------------------------------------------9-9-11-11-9-9-11-11---------
                                                                              

----------------7-12-16-14-12-11-14---7-7-7-7-------/12-12-------12-14-12-----
----------------9-12-17-16-14-12-16---7-7-7-7-------/12----14-12--------------
-11-9-9-11-11-9-----------------------8-8-8-8---------------------------------
                                                                              

-/12-12-------12-14-12-/5-5-----5-7----/12-12-------12-14-12--/7-7-----7-9-7--
-/12----14-12----------/5---7-5-----5--/12----14-12-----------/7---9-7--------
                                                                              

----------------------------2-0-||--------------------------------------------
-7-7-7-5-5-5-4-4-4--2-2-2-0---0-||--------------------------------------------
-8---8-6---6-4---4--2---2-1-----||--------------------------------------------
--------------------------------||---2-----2-2---2-2-----2-----2-----2-2------
--------------------------------||-----4-2-----4----4------------4-2-----4----
--------------------------------||-0-----------------2-4h----0----------------
                                ||:--> the section from here to the marked    

--------------2-----2-2---2-2-----2--------------------------------4-----4-4--
-2-2------2-----4-2-----4----4----------2-----2-2---2-2-----2--------6-4------
-----4------0-----------------2-4h--------4-2-----4----4---------2------------
------2-4h----------------------------0-----------------2-4h------------------
 end is played twice with an interval               (like the song is ended   

---------------------------------------------2-0-||-0-------------------------
------------------7-7-7-5-5-5-4-4-4--2-2-2-0---0-||-0-------------------------
---4-4-----4------8---8-6---6-4---4--2---2-1-----||-1-------------------------
-6----6------------------------------------------||-2-------------------------
-------4-6h--------------------------------------||-2-------------------------
-------------------------------------------------||-0-------------------------
 and then started again)                     <--:|| E
            
Submit corrections


        Cricket Bat Boogie lessons Hard to play? Try these video lessons and learn fast Cricket Bat Boogie lessons
        
↑ Back to top | Tablatures and chords for acoustic guitar and electric guitar, ukulele, drums are parodies/interpretations of the original songs. You may use it for private study, scholarship, research or language learning purposes only