» » »

Shadows - Big Boy Tabs

Artists:  A B C D E F G H I J K L M N O P Q R S T U V W X Y Z # 

Big Boy Tabs

(ver. 1) Click to play this song!
Shadows
 Rating:
3.7/5 (22 votes)

 Big Boy  lessons Tabs too difficult? Try these video lessons and learn fast
 
                  Q=246
  A      G         A      G         A      G         A      G
 4/4
  Gtr I (Clean El. Gtr.)
  PM--------------------------------------------------------------|
  Q  E E E E E E   Q  E E E E E E   Q  E E E E E E   Q  E E E E E E
|----------------|----------------|----------------|----------------||
|----------------|----------------|----------------|----------------||
|----------------|----------------|----------------|----------------||
|----------------|----------------|----------------|----------------||
|----------------|----------------|----------------|----------------||
|-5--5-5-3-3-3-3-|-5--5-5-3-3-3-3-|-5--5-5-3-3-3-3-|-5--5-5-3-3-3-3-||
|
| Gtr II (Clean El. Gtr.)
| PM--------------------------------------------------------------|
| Q  E E E E E E   Q  E E E E E E   Q  E E E E E E   Q  E E E E E E
|-5--5-5-3-3-3-3-|-5--5-5-3-3-3-3-|-5--5-5-3-3-3-3-|-5--5-5-3-3-3-3-||
|-5--5-5-3-3-3-3-|-5--5-5-3-3-3-3-|-5--5-5-3-3-3-3-|-5--5-5-3-3-3-3-||
|-6--6-6-4-4-4-4-|-6--6-6-4-4-4-4-|-6--6-6-4-4-4-4-|-6--6-6-4-4-4-4-||
|-7--7-7-5-5-5-5-|-7--7-7-5-5-5-5-|-7--7-7-5-5-5-5-|-7--7-7-5-5-5-5-||
|-7--7-7-5-5-5-5-|-7--7-7-5-5-5-5-|-7--7-7-5-5-5-5-|-7--7-7-5-5-5-5-||
|-5--5-5-3-3-3-3-|-5--5-5-3-3-3-3-|-5--5-5-3-3-3-3-|-5--5-5-3-3-3-3-||


  $
  A      G         A      G         A      G         A      G
  Q  E E Q   E E   Q  E E Q   E E   Q  E E Q   E E   Q  E E Q   E E
|----------------|----------------|----------------|-----------------|
|----5-5-----5-5-|----5-5-----5-5-|----5-5-----5-5-|----5-5-----5-5--|
|-6------7-------|-6------7-------|-6------7-------|-6------7--------|
|----------------|----------------|----------------|-----------------|
|----------------|----------------|----------------|-----------------|
|----------------|----------------|----------------|-----------------|
|
| PM--------------------------------------------------------------|
| Q  E E E E E E   Q  E E E E E E   Q  E E E E E E   Q  E E E E E E
|-5--5-5-3-3-3-3-|-5--5-5-3-3-3-3-|-5--5-5-3-3-3-3-|-5--5-5-3-3-3-3--|
|-5--5-5-3-3-3-3-|-5--5-5-3-3-3-3-|-5--5-5-3-3-3-3-|-5--5-5-3-3-3-3--|
|-6--6-6-4-4-4-4-|-6--6-6-4-4-4-4-|-6--6-6-4-4-4-4-|-6--6-6-4-4-4-4--|
|-7--7-7-5-5-5-5-|-7--7-7-5-5-5-5-|-7--7-7-5-5-5-5-|-7--7-7-5-5-5-5--|
|-7--7-7-5-5-5-5-|-7--7-7-5-5-5-5-|-7--7-7-5-5-5-5-|-7--7-7-5-5-5-5--|
|-5--5-5-3-3-3-3-|-5--5-5-3-3-3-3-|-5--5-5-3-3-3-3-|-5--5-5-3-3-3-3--|


                                      ~~~~~~~~~~~~~~~~~~~~~
  Q  H.             Q  H       Q      W                +Q   Q   H
|-----------------|-----------------|----------------|-------------------|
|-----------------|-----------------|----------------|-------------------|
|-6---------------|-----------------|----------------|-------------------|
|----7------------|-----------------|----------------|-------------------|
|-----------------|-9--7-------7\---|-0--------------|-(0)---------------|
|-----------------|-----------------|----------------|-------------------|
|
| PM------------------------------------------------------------------|
| Q  E  E E E E E   Q  E E E E E  E   Q  E E E E E E    Q   E E E E E E
|-5--5--5-3-3-3-3-|-5--5-5-3-3-3--3-|-5--5-5-3-3-3-3-|--5---5-5-3-3-3-3--|
|-5--5--5-3-3-3-3-|-5--5-5-3-3-3--3-|-5--5-5-3-3-3-3-|--5---5-5-3-3-3-3--|
|-6--6--6-4-4-4-4-|-6--6-6-4-4-4--4-|-6--6-6-4-4-4-4-|--6---6-6-4-4-4-4--|
|-7--7--7-5-5-5-5-|-7--7-7-5-5-5--5-|-7--7-7-5-5-5-5-|--7---7-7-5-5-5-5--|
|-7--7--7-5-5-5-5-|-7--7-7-5-5-5--5-|-7--7-7-5-5-5-5-|--7---7-7-5-5-5-5--|
|-5--5--5-3-3-3-3-|-5--5-5-3-3-3--3-|-5--5-5-3-3-3-3-|--5---5-5-3-3-3-3--|


  Q  E E Q   E E   Q  E E Q   E E   Q  E E Q   E E   Q  E E Q   E E
|----------------|----------------|----------------|-----------------|
|----5-5-----5-5-|----5-5-----5-5-|----5-5-----5-5-|----5-5-----5-5--|
|-6------7-------|-6------7-------|-6------7-------|-6------7--------|
|----------------|----------------|----------------|-----------------|
|----------------|----------------|----------------|-----------------|
|----------------|----------------|----------------|-----------------|
|
| PM--------------------------------------------------------------|
| Q  E E E E E E   Q  E E E E E E   Q  E E E E E E   Q  E E E E E E
|-5--5-5-3-3-3-3-|-5--5-5-3-3-3-3-|-5--5-5-3-3-3-3-|-5--5-5-3-3-3-3--|
|-5--5-5-3-3-3-3-|-5--5-5-3-3-3-3-|-5--5-5-3-3-3-3-|-5--5-5-3-3-3-3--|
|-6--6-6-4-4-4-4-|-6--6-6-4-4-4-4-|-6--6-6-4-4-4-4-|-6--6-6-4-4-4-4--|
|-7--7-7-5-5-5-5-|-7--7-7-5-5-5-5-|-7--7-7-5-5-5-5-|-7--7-7-5-5-5-5--|
|-7--7-7-5-5-5-5-|-7--7-7-5-5-5-5-|-7--7-7-5-5-5-5-|-7--7-7-5-5-5-5--|
|-5--5-5-3-3-3-3-|-5--5-5-3-3-3-3-|-5--5-5-3-3-3-3-|-5--5-5-3-3-3-3--|


                                      ~~~~~~~~~~~~~~~~~~~~~
  Q  H.             Q  H       Q      W                +Q   Q   H
|-----------------|-----------------|----------------|-------------------||
|-----------------|-----------------|----------------|-------------------||
|-6---------------|-----------------|----------------|-------------------||
|----7------------|-----------------|----------------|-------------------||
|-----------------|-9--7-------7\---|-0--------------|-(0)---------------||
|-----------------|-----------------|----------------|-------------------||
|
| PM------------------------------------------------------------------|
| Q  E  E E E E E   Q  E E E E E  E   Q  E E E E E E    Q   E E E E E E
|-5--5--5-3-3-3-3-|-5--5-5-3-3-3--3-|-5--5-5-3-3-3-3-|--5---5-5-3-3-3-3--||
|-5--5--5-3-3-3-3-|-5--5-5-3-3-3--3-|-5--5-5-3-3-3-3-|--5---5-5-3-3-3-3--||
|-6--6--6-4-4-4-4-|-6--6-6-4-4-4--4-|-6--6-6-4-4-4-4-|--6---6-6-4-4-4-4--||
|-7--7--7-5-5-5-5-|-7--7-7-5-5-5--5-|-7--7-7-5-5-5-5-|--7---7-7-5-5-5-5--||
|-7--7--7-5-5-5-5-|-7--7-7-5-5-5--5-|-7--7-7-5-5-5-5-|--7---7-7-5-5-5-5--||
|-5--5--5-3-3-3-3-|-5--5-5-3-3-3--3-|-5--5-5-3-3-3-3-|--5---5-5-3-3-3-3--||


  E7                                 A
                                                      ~
  Q  Q   Q   Q     H.          Q     Q  H       Q     W
|----------------|-----------------|----------------|-----------------|
|----------------|-----------------|----------------|-----------------|
|-1--2---3---4---|-----------------|----------------|-----------------|
|----------------|-2-----------0---|----2-----------|-2---------------|
|----------------|-----------------|-4----------4---|-----------------|
|----------------|-----------------|----------------|-----------------|
|
| PM---------------------------------------------------------------|
| Q  E E E E E E   Q   E E E E E E   Q  E E E E E E   Q  E E E E E E
|-0--0-0-0-0-0-0-|-0---0-0-0-0-0-0-|-5--5-5-5-5-5-5-|-5--5-5-5-5-5-5--|
|-0--0-0-0-0-0-0-|-0---0-0-0-0-0-0-|-5--5-5-5-5-5-5-|-5--5-5-5-5-5-5--|
|-1--1-1-1-1-1-1-|-1---1-1-1-1-1-1-|-6--6-6-6-6-6-6-|-6--6-6-6-6-6-6--|
|-0--0-0-0-0-0-0-|-0---0-0-0-0-0-0-|-7--7-7-7-7-7-7-|-7--7-7-7-7-7-7--|
|-2--2-2-2-2-2-2-|-2---2-2-2-2-2-2-|-7--7-7-7-7-7-7-|-7--7-7-7-7-7-7--|
|-0--0-0-0-0-0-0-|-0---0-0-0-0-0-0-|-5--5-5-5-5-5-5-|-5--5-5-5-5-5-5--|


  E7                                A
                                    ~~~~~~~~~~~~~~~~~~~~~
  Q  Q   Q   Q     H      E E Q     W                +Q   Q   H
|----------------|----------------|----------------|-------------------|
|----------------|----------------|----------------|-------------------|
|-1--2---3---4---|----------------|----------------|-------------------|
|----------------|-2------0h2p0---|----------------|-------------------|
|----------------|----------------|-4--------------|-(4)---------------|
|----------------|----------------|----------------|-------------------|
|
| PM----------------------------------------------------------------|
| Q  E E E E E E   Q  E E E E E E   Q  E E E E E E    Q   E E E E E E
|-0--0-0-0-0-0-0-|-0--0-0-0-0-0-0-|-5--5-5-5-5-5-5-|--5---5-5-5-5-5-5--|
|-0--0-0-0-0-0-0-|-0--0-0-0-0-0-0-|-5--5-5-5-5-5-5-|--5---5-5-5-5-5-5--|
|-1--1-1-1-1-1-1-|-1--1-1-1-1-1-1-|-6--6-6-6-6-6-6-|--6---6-6-6-6-6-6--|
|-0--0-0-0-0-0-0-|-0--0-0-0-0-0-0-|-7--7-7-7-7-7-7-|--7---7-7-7-7-7-7--|
|-2--2-2-2-2-2-2-|-2--2-2-2-2-2-2-|-7--7-7-7-7-7-7-|--7---7-7-7-7-7-7--|
|-0--0-0-0-0-0-0-|-0--0-0-0-0-0-0-|-5--5-5-5-5-5-5-|--5---5-5-5-5-5-5--|


  D                                  C
                      ~~                                 ~~
  Q  Q   E E Q     Q  H.             Q  Q   E E Q     Q  H.
|----------------|-----------------|----------------|------------------|
|----------------|-----------------|----------------|------------------|
|----7---6-------|-----------------|----5---4-------|------------------|
|----------7-----|-9--7------------|----------5-----|-7--5-------------|
|-9----------9---|-----------------|-7----------7---|------------------|
|----------------|-----------------|----------------|------------------|
|
| PM----------------------------------------------------------------|
| Q  E E E E E E   Q  E  E E E E E   Q  E E E E E E   Q  E  E E E E E
|-5--5-5-5-5-5-5-|-5--5--5-5-5-5-5-|-3--3-3-3-3-3-3-|-3--3--3-3-3-3-3--|
|-7--7-7-7-7-7-7-|-7--7--7-7-7-7-7-|-5--5-5-5-5-5-5-|-5--5--5-5-5-5-5--|
|-7--7-7-7-7-7-7-|-7--7--7-7-7-7-7-|-5--5-5-5-5-5-5-|-5--5--5-5-5-5-5--|
|-7--7-7-7-7-7-7-|-7--7--7-7-7-7-7-|-5--5-5-5-5-5-5-|-5--5--5-5-5-5-5--|
|-5--5-5-5-5-5-5-|-5--5--5-5-5-5-5-|-3--3-3-3-3-3-3-|-3--3--3-3-3-3-3--|
|----------------|-----------------|----------------|------------------|


  Bb                                  E7
                                      ~~~~~~~~~~~~~~~~~~~~~
  Q  Q   E E Q     Q  E E +E  E Q     W                +Q   Q   H
|----------------|------------------|----------------|-------------------||
|----------------|------------------|----------------|-------------------||
|----3---2-------|------------------|----------------|-------------------||
|----------3-----|-5--5-5-(5)-5-3---|-2--------------|-(2)---------------||
|-5----------5---|------------------|----------------|-------------------||
|----------------|------------------|----------------|-------------------||
|
| PM------------------------------------------------------------------|
| Q  E E E E E E   Q  E E  E  E E E   Q  E E E E E E    Q   E E E E E E
|-1--1-1-1-1-1-1-|-1--1-1--1--1-1-1-|-0--0-0-0-0-0-0-|--0---0-0-0-0-0-0--||
|-3--3-3-3-3-3-3-|-3--3-3--3--3-3-3-|-0--0-0-0-0-0-0-|--0---0-0-0-0-0-0--||
|-3--3-3-3-3-3-3-|-3--3-3--3--3-3-3-|-1--1-1-1-1-1-1-|--1---1-1-1-1-1-1--||
|-3--3-3-3-3-3-3-|-3--3-3--3--3-3-3-|-0--0-0-0-0-0-0-|--0---0-0-0-0-0-0--||
|-1--1-1-1-1-1-1-|-1--1-1--1--1-1-1-|-2--2-2-2-2-2-2-|--2---2-2-2-2-2-2--||
|----------------|------------------|-0--0-0-0-0-0-0-|--0---0-0-0-0-0-0--||


  A      G         A      G         A      G         A      G
  Gtr III (El. Gtr. muted)
  PM--------------------------------------------------------------|
  Q  E E Q   E E   Q  E E Q   E E   Q  E E Q   E E   Q  E E Q   E E
|----------------|----------------|----------------|-----------------|
|----5-5-----5-5-|----5-5-----5-5-|----5-5-----5-5-|----5-5-----5-5--|
|-6------7-------|-6------7-------|-6------7-------|-6------7--------|
|----------------|----------------|----------------|-----------------|
|----------------|----------------|----------------|-----------------|
|----------------|----------------|----------------|-----------------|
|
| PM--------------------------------------------------------------|
| Q  E E E E E E   Q  E E E E E E   Q  E E E E E E   Q  E E E E E E
|-5--5-5-3-3-3-3-|-5--5-5-3-3-3-3-|-5--5-5-3-3-3-3-|-5--5-5-3-3-3-3--|
|-5--5-5-3-3-3-3-|-5--5-5-3-3-3-3-|-5--5-5-3-3-3-3-|-5--5-5-3-3-3-3--|
|-6--6-6-4-4-4-4-|-6--6-6-4-4-4-4-|-6--6-6-4-4-4-4-|-6--6-6-4-4-4-4--|
|-7--7-7-5-5-5-5-|-7--7-7-5-5-5-5-|-7--7-7-5-5-5-5-|-7--7-7-5-5-5-5--|
|-7--7-7-5-5-5-5-|-7--7-7-5-5-5-5-|-7--7-7-5-5-5-5-|-7--7-7-5-5-5-5--|
|-5--5-5-3-3-3-3-|-5--5-5-3-3-3-3-|-5--5-5-3-3-3-3-|-5--5-5-3-3-3-3--|


  A       G         A      G          A      G         A        G
                    Gtr I
  PM-|                                ~~~~~~~~~~~~~~~~~~~~~
  Q  H.             Q  H       Q      W                +Q   Q   H
|-----------------|-----------------|----------------|-------------------||
|-----------------|-----------------|----------------|-------------------||
|-6---------------|-----------------|----------------|-------------------||
|----7------------|-----------------|----------------|-------------------||
|-----------------|-9--7-------7\---|-0--------------|-(0)---------------||
|-----------------|-----------------|----------------|-------------------||
|
| PM------------------------------------------------------------------|
| Q  E  E E E E E   Q  E E E E E  E   Q  E E E E E E    Q   E E E E E E
|-5--5--5-3-3-3-3-|-5--5-5-3-3-3--3-|-5--5-5-3-3-3-3-|--5---5-5-3-3-3-3--||
|-5--5--5-3-3-3-3-|-5--5-5-3-3-3--3-|-5--5-5-3-3-3-3-|--5---5-5-3-3-3-3--||
|-6--6--6-4-4-4-4-|-6--6-6-4-4-4--4-|-6--6-6-4-4-4-4-|--6---6-6-4-4-4-4--||
|-7--7--7-5-5-5-5-|-7--7-7-5-5-5--5-|-7--7-7-5-5-5-5-|--7---7-7-5-5-5-5--||
|-7--7--7-5-5-5-5-|-7--7-7-5-5-5--5-|-7--7-7-5-5-5-5-|--7---7-7-5-5-5-5--||
|-5--5--5-3-3-3-3-|-5--5-5-3-3-3--3-|-5--5-5-3-3-3-3-|--5---5-5-3-3-3-3--||


  Q  E E Q   E E   Q  E E a Q   Q     Q  H.             +Q   Q   H
|----------------|------------------|-----------------|------------------|
|----------------|------------------|-----------------|------------------|
|----------------|------------------|-----------------|------------------|
|----------------|--------------2---|-4--2------------|-(2)--------------|
|-0--0-0-0---0-0-|-0--0-0-3S4-------|-----------------|------------------|
|----------------|------------------|-----------------|------------------|
|
| PM-------------------------------------------------------------------|
| Q  E E E E E E   Q  E E   E E E E   Q  E  E E E E E    Q   E E E E E E
|-5--5-5-5-5-5-5-|-5--5-5---5-5-5-5-|-5--5--5-5-5-5-5-|--5---5-5-5-5-5-5-|
|-5--5-5-5-5-5-5-|-5--5-5---5-5-5-5-|-5--5--5-5-5-5-5-|--5---5-5-5-5-5-5-|
|-6--6-6-6-6-6-6-|-6--6-6---6-6-6-6-|-6--6--6-6-6-6-6-|--6---6-6-6-6-6-6-|
|-7--7-7-7-7-7-7-|-7--7-7---7-7-7-7-|-7--7--7-7-7-7-7-|--7---7-7-7-7-7-7-|
|-7--7-7-7-7-7-7-|-7--7-7---7-7-7-7-|-7--7--7-7-7-7-7-|--7---7-7-7-7-7-7-|
|-5--5-5-5-5-5-5-|-5--5-5---5-5-5-5-|-5--5--5-5-5-5-5-|--5---5-5-5-5-5-5-|


                                      G
                                      ~~~~~~~~~~~~~~~~~~~~~
  Q  E E Q   E E   Q  E E a Q   Q     W                +Q   Q   Q   Q
|----------------|------------------|----------------|------------------|
|----------------|------------------|----------------|------------------|
|----------------|------------------|-0--------------|-(0)--------------|
|----------------|--------------2---|----------------|------4---2-------|
|-0--0-0-0---0-0-|-0--0-0-3s4-------|----------------|--------------4---|
|----------------|------------------|----------------|------------------|
|
| PM------------------------------------------------------------------|
| Q  E E E E E E   Q  E E   E E E E   Q  E E E E E E    Q   E E E E E E
|-5--5-5-5-5-5-5-|-5--5-5---5-5-5-5-|-3--3-3-3-3-3-3-|--3---3-3-3-3-3-3-|
|-5--5-5-5-5-5-5-|-5--5-5---5-5-5-5-|-3--3-3-3-3-3-3-|--3---3-3-3-3-3-3-|
|-6--6-6-6-6-6-6-|-6--6-6---6-6-6-6-|-4--4-4-4-4-4-4-|--4---4-4-4-4-4-4-|
|-7--7-7-7-7-7-7-|-7--7-7---7-7-7-7-|-5--5-5-5-5-5-5-|--5---5-5-5-5-5-5-|
|-7--7-7-7-7-7-7-|-7--7-7---7-7-7-7-|-5--5-5-5-5-5-5-|--5---5-5-5-5-5-5-|
|-5--5-5-5-5-5-5-|-5--5-5---5-5-5-5-|-3--3-3-3-3-3-3-|--3---3-3-3-3-3-3-|


  A                                   D
                                         ~~~~~~~~~~~~~~~~~~~
  Q  E E Q   E E   Q  E E a Q   Q     Q  H.             +Q   Q   Q   Q
|----------------|------------------|-----------------|------------------|
|----------------|------------------|-----------------|------------------|
|----------------|------------------|----2------------|-(2)--2---1-------|
|----------------|--------------2---|-4---------------|--------------4---|
|-0--0-0-0---0-0-|-0--0-0-3S4-------|-----------------|------------------|
|----------------|------------------|-----------------|------------------|
|
| PM-------------------------------------------------------------------|
| Q  E E E E E E   Q  E E   E E E E   Q  E  E E E E E    Q   E E E E E E
|-5--5-5-5-5-5-5-|-5--5-5---5-5-5-5-|-5--5--5-5-5-5-5-|--5---5-5-5-5-5-5-|
|-5--5-5-5-5-5-5-|-5--5-5---5-5-5-5-|-7--7--7-7-7-7-7-|--7---7-7-7-7-7-7-|
|-6--6-6-6-6-6-6-|-6--6-6---6-6-6-6-|-7--7--7-7-7-7-7-|--7---7-7-7-7-7-7-|
|-7--7-7-7-7-7-7-|-7--7-7---7-7-7-7-|-7--7--7-7-7-7-7-|--7---7-7-7-7-7-7-|
|-7--7-7-7-7-7-7-|-7--7-7---7-7-7-7-|-5--5--5-5-5-5-5-|--5---5-5-5-5-5-5-|
|-5--5-5-5-5-5-5-|-5--5-5---5-5-5-5-|-----------------|------------------|


                         To Coda                          D.S. al Coda
  A                E7               A      G         A        G
                                    ~~~~~~~~~~~~~~~~~~~~~
  H      H         Q  Q   Q   Q     W                +Q   Q   H
|----------------|----------------|----------------|-------------------||
|----------------|----------------|----------------|-------------------||
|--------2-------|-1------1---4---|-2--------------|-(2)---------------||
|-2--------------|----2-----------|----------------|-------------------||
|----------------|----------------|----------------|-------------------||
|----------------|----------------|----------------|-------------------||
|
| PM----------------------------------------------------------------|
| Q  E E E E E E   Q  E E E E E E   Q  E E E E E E    Q   E E E E E E
|-5--5-5-5-5-5-5-|-0--0-0-0-0-0-0-|-5--5-5-3-3-3-3-|--5---5-5-3-3-3-3--||
|-5--5-5-5-5-5-5-|-0--0-0-0-0-0-0-|-5--5-5-3-3-3-3-|--5---5-5-3-3-3-3--||
|-6--6-6-6-6-6-6-|-1--1-1-1-1-1-1-|-6--6-6-4-4-4-4-|--6---6-6-4-4-4-4--||
|-7--7-7-7-7-7-7-|-0--0-0-0-0-0-0-|-7--7-7-5-5-5-5-|--7---7-7-5-5-5-5--||
|-7--7-7-7-7-7-7-|-2--2-2-2-2-2-2-|-7--7-7-5-5-5-5-|--7---7-7-5-5-5-5--||
|-5--5-5-5-5-5-5-|-0--0-0-0-0-0-0-|-5--5-5-3-3-3-3-|--5---5-5-3-3-3-3--||


  &
  A      G         A        G
                                       Gtr III
  ~~~~~~~~~~~~~~~~~~~~~                PM----------------------------|
  W                +Q   Q   H          Q  E E Q   E E   Q  E E Q   E E
|----------------|------------------||----------------|-----------------|
|----------------|------------------||----5-5-----5-5-|----5-5-----5-5--|
|-2--------------|-(2)--------------||-6------7-------|-6------7--------|
|----------------|------------------||----------------|-----------------|
|----------------|------------------||----------------|-----------------|
|----------------|------------------||----------------|-----------------|
|
| PM-----------------------------------------------------------------|
| Q  E E E E E E    Q   E E E E E E    Q  E E E E E E   Q  E E E E E E
|-5--5-5-3-3-3-3-|--5---5-5-3-3-3-3-||-5--5-5-3-3-3-3-|-5--5-5-3-3-3-3--|
|-5--5-5-3-3-3-3-|--5---5-5-3-3-3-3-||-5--5-5-3-3-3-3-|-5--5-5-3-3-3-3--|
|-6--6-6-4-4-4-4-|--6---6-6-4-4-4-4-||-6--6-6-4-4-4-4-|-6--6-6-4-4-4-4--|
|-7--7-7-5-5-5-5-|--7---7-7-5-5-5-5-||-7--7-7-5-5-5-5-|-7--7-7-5-5-5-5--|
|-7--7-7-5-5-5-5-|--7---7-7-5-5-5-5-||-7--7-7-5-5-5-5-|-7--7-7-5-5-5-5--|
|-5--5-5-3-3-3-3-|--5---5-5-3-3-3-3-||-5--5-5-3-3-3-3-|-5--5-5-3-3-3-3--|


                                                      Gtr I
  PM-----------------------------------|
  Q  E E Q   E E   Q  E E Q   E E   Q  H.             Q  H       Q
|----------------|----------------|-----------------|------------------|
|----5-5-----5-5-|----5-5-----5-5-|-----------------|------------------|
|-6------7-------|-6------7-------|-6---------------|------------------|
|----------------|----------------|----7------------|------------------|
|----------------|----------------|-----------------|-9--7-------7\----|
|----------------|----------------|-----------------|------------------|
|
| PM----------------------------------------------------------------|
| Q  E E E E E E   Q  E E E E E E   Q  E  E E E E E   Q  E E E E E  E
|-5--5-5-3-3-3-3-|-5--5-5-3-3-3-3-|-5--5--5-3-3-3-3-|-5--5-5-3-3-3--3--|
|-5--5-5-3-3-3-3-|-5--5-5-3-3-3-3-|-5--5--5-3-3-3-3-|-5--5-5-3-3-3--3--|
|-6--6-6-4-4-4-4-|-6--6-6-4-4-4-4-|-6--6--6-4-4-4-4-|-6--6-6-4-4-4--4--|
|-7--7-7-5-5-5-5-|-7--7-7-5-5-5-5-|-7--7--7-5-5-5-5-|-7--7-7-5-5-5--5--|
|-7--7-7-5-5-5-5-|-7--7-7-5-5-5-5-|-7--7--7-5-5-5-5-|-7--7-7-5-5-5--5--|
|-5--5-5-3-3-3-3-|-5--5-5-3-3-3-3-|-5--5--5-3-3-3-3-|-5--5-5-3-3-3--3--|


  A      G         A        G         A          G     A
                                      Gtr III
  ~~~~~~~~~~~~~~~~~~~~~               PM----------------------------|
  W                +Q   Q   H         Q  E E Q   E E   Q  E E Q   E E
|----------------|------------------|----------------|-----------------|
|----------------|------------------|----5-5-----5-5-|----5-5-----5-5--|
|----------------|------------------|-6------7-------|-6------7--------|
|----------------|------------------|----------------|-----------------|
|-0--------------|-(0)--------------|----------------|-----------------|
|----------------|------------------|----------------|-----------------|
|
| PM----------------------------------------------------------------|
| Q  E E E E E E    Q   E E E E E E   Q  E E E E E E   Q  E E E E E E
|-5--5-5-3-3-3-3-|--5---5-5-3-3-3-3-|-5--5-5-3-3-3-3-|-5--5-5-3-3-3-3--|
|-5--5-5-3-3-3-3-|--5---5-5-3-3-3-3-|-5--5-5-3-3-3-3-|-5--5-5-3-3-3-3--|
|-6--6-6-4-4-4-4-|--6---6-6-4-4-4-4-|-6--6-6-4-4-4-4-|-6--6-6-4-4-4-4--|
|-7--7-7-5-5-5-5-|--7---7-7-5-5-5-5-|-7--7-7-5-5-5-5-|-7--7-7-5-5-5-5--|
|-7--7-7-5-5-5-5-|--7---7-7-5-5-5-5-|-7--7-7-5-5-5-5-|-7--7-7-5-5-5-5--|
|-5--5-5-3-3-3-3-|--5---5-5-3-3-3-3-|-5--5-5-3-3-3-3-|-5--5-5-3-3-3-3--|


  PM---------------------------------------------|
  Q  E E Q   E E   Q  E E Q   E E   Q  E E Q   E E
|----------------|----------------|----------------*|
|----5-5-----5-5-|----5-5-----5-5-|----5-5-----5-5-*|
|-6------7-------|-6------7-------|-6------7-------*|
|----------------|----------------|----------------*|
|----------------|----------------|----------------*|
|----------------|----------------|----------------*|
|
| PM---------------------------------------------|
| Q  E E E E E E   Q  E E E E E E   Q  E E E E E E
|-5--5-5-3-3-3-3-|-5--5-5-3-3-3-3-|-5--5-5-3-3-3-3-*|
|-5--5-5-3-3-3-3-|-5--5-5-3-3-3-3-|-5--5-5-3-3-3-3-*|
|-6--6-6-4-4-4-4-|-6--6-6-4-4-4-4-|-6--6-6-4-4-4-4-*|
|-7--7-7-5-5-5-5-|-7--7-7-5-5-5-5-|-7--7-7-5-5-5-5-*|
|-7--7-7-5-5-5-5-|-7--7-7-5-5-5-5-|-7--7-7-5-5-5-5-*|
|-5--5-5-3-3-3-3-|-5--5-5-3-3-3-3-|-5--5-5-3-3-3-3-*|            
Submit corrections


        Big Boy  lessons Hard to play? Try these video lessons and learn fast Big Boy  lessons
        
↑ Back to top | Tablatures and chords for acoustic guitar and electric guitar, ukulele, drums are parodies/interpretations of the original songs. You may use it for private study, scholarship, research or language learning purposes only