» » »

Senses Fail - Priest And The Matador Tabs

Artists:  A B C D E F G H I J K L M N O P Q R S T U V W X Y Z # 

Priest And The Matador Tabs

(ver. 2) Click to play this song!
Senses Fail
 Rating:
4/5 (4 votes)

 Priest And The Matador lessons Tabs too difficult? Try these video lessons and learn fast
 
                
Tuning:drop d, but my guitar isn't in perfect tune so it might be off one fret.
   Just to let you know this is only one of the guitars, if you give me more time i'll 
the second guitar, any comments or corrections are appreciated. I'll have lost and found, 
cant be saved on here soon, enjoy.

intro & verse
e|-------21------------------------20-------------------------|
B|----18----18----18----18------18----18----18----------------|
G|-18----------18----20------18----------18----20-------------|
D|------------------------------------------------------------|
A|------------------------------------------------------------|
D|------------------------------------------------------------|

1st chorus x2
e|---------------------------------------------------------------------------|
B|---------------------------------------------------------------------------|
G|---------------------------------------------------------12-12-12-12-12-12-|
D|11-11-11-11-11-11--15-15-15-15-15-15--10-10-10-10-10-10--12-12-12-12-12-12-|
A|11-11-11-11-11-11--15-15-15-15-15-15--10-10-10-10-10-10--10-10-10-10-10-10-|
D|11-11-11-11-11-11--15-15-15-15-15-15--10-10-10-10-10-10--------------------|

chorus x2
e|--------------------------------------------------------------|
B|--------------------------------------------------------------|
G|----------------------------------------------8-8-8-8-8-8-----|
D|-8-8-8-8-8-8--11-11-11-11-11-11--6-6-6-6-6-6--8-8-8-8-8-8-----|
A|-8-8-8-8-8-8--11-11-11-11-11-11--6-6-6-6-6-6--6-6-6-6-6-6-----|
D|-8-8-8-8-8-8--11-11-11-11-11-11--6-6-6-6-6-6------------------|

solo
e|--------------------------------------------------------------------------|
B|--------------------------------------------------------------------------|
G|--------------------------------------------------------------------------|
D|-11/13--16-15-15-11/13-16-18brbr-13h15-13h15-16-15-10-11-10h11-8-11/13-16-|
A|--------------------------------------------------------------------------|
D|--------------------------------------------------------------------------|

                                        tr tr tr
e|--------------------------------------------------------------------------|
B|-----------------------17h18r17-18-20-23-22-20-20-22-23-22-20-------------|
G|-15-15-11/13-16-18brbr----------------------------------------23----------|
D|--------------------------------------------------------------------------|
A|--------------------------------------------------------------------------|
D|--------------------------------------------------------------------------|

bridge (im not totally sure on this part)
e|------------------------------------|
B|------------------------------------|
G|------------------------------------|     do as many times as need be
D|-11-11-11-11-11-11--6-6-6-6-6-6-----|
A|-11-11-11-11-11-11--6-6-6-6-6-6-----|
D|-11-11-11-11-11-11--6-6-6-6-6-6-----|

outro
   tr tr tr tr tr tr tr tr tr tr tr tr tr tr tr tr tr tr
e|--------------------------------------------------------|
B|--------------------------------------------------------|
G|--------------------------------------------------------|
D|-13 18 16 15-13-18-16-15-13-18-16-15-13-18-16-15 20 18--|
A|--------------------------------------------------------|
D|--------------------------------------------------------|

i'll add another tab tomorrow, but play it through, see if it sounds right, and if it 
add a comment, and tell me what i did wrong, thx

| tr tremolo pick (speed pick)
| /  slide up
| \  slide down
| h  hammer-on
| p  pull-off
| ~  vibrato
| +  harmonic
| x  Mute note
            
Submit corrections


        Priest And The Matador lessons Hard to play? Try these video lessons and learn fast Priest And The Matador lessons
        
↑ Back to top | Tablatures and chords for acoustic guitar and electric guitar, ukulele, drums are parodies/interpretations of the original songs. You may use it for private study, scholarship, research or language learning purposes only