» » »

Senses Fail - Priest And The Matador Tabs

Artists:  A B C D E F G H I J K L M N O P Q R S T U V W X Y Z # 

Priest And The Matador Tabs

(ver. 1) Click to play this song!
Senses Fail
 Rating:
4/5 (4 votes)

 Priest And The Matador lessons Tabs too difficult? Try these video lessons and learn fast
 
                Album:Still Searching
Tuning:Drop D

UPDATE!-5-17-o7 i added the rest of the outro lol

This is a kick ass song with a lot of of different sound in the intro, so this may not 
correct, but it sounds about 99% right
I tried the solo, i'm not 100% sure its right, but oh well...lol
/ - slide up
\ - slide down
h - hammer-on
p - pull-off
~ - vibrato
+ - harmonic
x - Mute note


Intro
0:00-0:12
e|-------------20-------20------------------19-------19----------------------|
B|-15h17-15h17----17-15----17-15-15h17-15h17---17-15----17-15----------------|
G|---------------------------------------------------------------------------|
D|---------------------------------------------------------------------------|
A|---------------------------------------------------------------------------|
D|---------------------------------------------------------------------------|


0:12-1:33
e|-------------20------20-------------------19-----19------------------------|
B|-15h17-15h17---17-15---17-15--15h17-15h17---17-15--17-15-------------------|
G|---------------------------------------------------------------------------|
D|---------------------------------------------------------------------------|
A|---------------------------------------------------------------------------|
D|---------------------------------------------------------------------------|

e|-------------17-------17--------------------19-------19--------------------|
B|-15h17-15h17----17-15----17-15--15h17-15h17----17-15----17-15--------------|
G|---------------------------------------------------------------------------|
D|---------------------------------------------------------------------------|
A|---------------------------------------------------------------------------|
D|---------------------------------------------------------------------------|

Verse (here i lay, im staring at...)
1:33-1:57
e|-------------20------20-------------------19-----19------------------------|
B|-15h17-15h17---17-15---17-15--15h17-15h17---17-15--17-15-------------------|
G|---------------------------------------------------------------------------|
D|---------------------------------------------------------------------------|
A|---------------------------------------------------------------------------|
D|---------------------------------------------------------------------------|

e|-------------17-------17--------------------19-------19--------------------|
B|-15h17-15h17----17-15----17-15--15h17-15h17----17-15----17-15--------------|
G|---------------------------------------------------------------------------|
D|---------------------------------------------------------------------------|
A|---------------------------------------------------------------------------|
D|---------------------------------------------------------------------------|

Chorus (I'm the arrow,shot straight to hell...)
1:57-2:20                        those are 10's not 1's and 0's
e|---------------------------------------------------------------------------|
B|---------------------------------------------------------------------------|
G|---------------------------------------------------------------------------|
D|-77777777-1010101010101010-55555555-00000000-------------------------------|
A|-77777777-1010101010101010-55555555-00000000-------------------------------|
D|-77777777-1010101010101010-55555555-00000000-------------------------------|

Verse (A priest is rushing to my side...)
2:21-2:44
e|-------------20------20-------------------19-----19------------------------|
B|-15h17-15h17---17-15---17-15--15h17-15h17---17-15--17-15-------------------|
G|---------------------------------------------------------------------------|
D|---------------------------------------------------------------------------|
A|---------------------------------------------------------------------------|
D|---------------------------------------------------------------------------|

e|-------------17-------17--------------------19-------19--------------------|
B|-15h17-15h17----17-15----17-15--15h17-15h17----17-15----17-15--------------|
G|---------------------------------------------------------------------------|
D|---------------------------------------------------------------------------|
A|---------------------------------------------------------------------------|
D|---------------------------------------------------------------------------|

Chorus (I'm the arrow, shot straight to hell...)
2:44-3:08
e|---------------------------------------------------------------------------|
B|---------------------------------------------------------------------------|
G|---------------------------------------------------------------------------|
D|-77777777-1010101010101010-55555555-00000000-------------------------------|
A|-77777777-1010101010101010-55555555-00000000-------------------------------|
D|-77777777-1010101010101010-55555555-00000000-------------------------------|

Breakdown, or verse 3, whatever...(A man bends down and says son...)
3:08-3:18
e|-------------20------20-------------------19-----19------------------------|
B|-15h17-15h17---17-15---17-15--15h17-15h17---17-15--17-15-------------------|
G|---------------------------------------------------------------------------|
D|---------------------------------------------------------------------------|
A|---------------------------------------------------------------------------|
D|---------------------------------------------------------------------------|

e|-------------17-------17--------------------19-------19--------------------|
B|-15h17-15h17----17-15----17-15--15h17-15h17----17-15----17-15--------------|
G|---------------------------------------------------------------------------|
D|---------------------------------------------------------------------------|
A|---------------------------------------------------------------------------|
D|---------------------------------------------------------------------------|

Solo
3:18-3:43
e|---------------------------------------------------------------------------|
B|---------------------------------------------------------------------------|
G|-5/12-10-9-9--5/12--10--14-14-14--12--7/9\7--7/9-10-5/7\5--22--------------|
D|-x-x--x--x-x--x-x---x---x--x--x---x---x-x-x--x-x-x--x-x-x--22--------------|
A|-3/10-8--7-7--3/10--8---12-12-12--10--5/7\5--5/7-8--3/5\3--00--------------|
D|---------------------------------------------------------------------------|

                                            (not sure about this part VVVV)
e|---------------------------------------------------------|------------------|
B|---------------------------------------12h13p12--12h13/15|1717171615----1617|
G|-5/12-10-9-9--5/12--10--12/14-12/14-12-------------------|----------1617----|
D|-x-x--x--x-x--x-x---x---x--x--x-----x--------------------|------------------|
A|-3/10-8--7-7--3/10--8---10/12-10/12-10-------------------|------------------|
D|---------------------------------------------------------|------------------|

Chorus (I'm The arrow,shot straight to hell)
3:43-4:06
e|---------------------------------------------------------------------------|
B|---------------------------------------------------------------------------|
G|---------------------------------------------------------------------------|
D|-77777777-1010101010101010-55555555-00000000-------------------------------|
A|-77777777-1010101010101010-55555555-00000000-------------------------------|
D|-77777777-1010101010101010-55555555-00000000-------------------------------|

Outro (the ambulence is singing...)
4:06
e|---------------------------------------------------------------------------|
B|---------------------------------------------------------------------------|
G|-9-9-9-9-9-9-9-9-7-7-7-7-7-7-7-7-------------------------------------------|
D|-x-x-x-x-x-x-x-x-x-x-x-x-x-x-x-x-(4x's)------------------------------------|
A|-7-7-7-7-7-7-7-7-5-5-5-5-5-5-5-5-------------------------------------------|
D|---------------------------------------------------------------------------|

e|---------------------------------------------------------------------------|
B|---------------------------------------------------------------------------|
G|-7/12-10\9-9---------14-14-14-14-14-14-14--12-12-12-12-12-12-12------------|
D|-x-x---x-x-x--3x's----x--x--x--x--x--x--x---x--x--x--x--x--x--x------------|
A|-5/10--8\7-7---------12-12-12-12-12-12-12--10-10-10-10-10-10-10------------|
D|---------------------------------------------------------------------------|
do all of that above over and over until it fades out in the song

there is also an acoustic playing in the background of the outro, i dont know what it is though...



ENJOY!
            
Submit corrections


        Priest And The Matador lessons Hard to play? Try these video lessons and learn fast Priest And The Matador lessons
        
↑ Back to top | Tablatures and chords for acoustic guitar and electric guitar, ukulele, drums are parodies/interpretations of the original songs. You may use it for private study, scholarship, research or language learning purposes only