» » »

Senses Fail - Lungs Like Gallows Tabs

Artists:  A B C D E F G H I J K L M N O P Q R S T U V W X Y Z # 

Lungs Like Gallows Tabs

(ver. 3) Click to play this song!
Senses Fail
 Rating:
4/5 (4 votes)

 Lungs Like Gallows lessons Tabs too difficult? Try these video lessons and learn fast
 
                                              Lungs Like Gallows


                                                                     Senses Fail

Intro

D||-----------------------|-----------------------|---------------------------|
A||--6---------------6----|-----------------------|---------------------------|
F||--7---------10----7----|-------12--------------|---------------------------|
C||--7----0----10----7----|--0----10----7----8----|--10-----------------------|
G||--5----0-----8----5----|--0----10----7----8----|--10-----------------------|
C||--0----0-----8----0----|--0----10----7----8----|--10----8h----10----10h----|

----------------------------|--------|
----------------------------|--------|
----------------------------|--------|
----------------------------|--------|
----------------------------|--------|
--12----12h----14----14h----|--15----|


Verse

   PM   PM       PM     PM   PM   PM

|------------|-------------------------|
|------------|-------------------------|
|------------|-------------------------|
|------------|-------------------------|
|------------|-------------------------|
|--0----0----|--14h----15----0----0----|


   PM     PM   PM   PM       PM     PM   PM   PM       PM     PM   PM   PM

-------------------------|-------------------------|-------------------------|
-------------------------|-------------------------|-------------------------|
-------------------------|-------------------------|-------------------------|
-------------------------|-------------------------|-------------------------|
-------------------------|-------------------------|-------------------------|
--14h----15----0----0----|--14h----15----0----0----|--14h----15----0----0----|


   PM     PM   PM   PM       PM     PM   PM   PM      PM    PM   PM   PM

-------------------------|-------------------------|-----------------------|
-------------------------|-------------------------|-----------------------|
-------------------------|-------------------------|-----------------------|
-------------------------|-------------------------|-----------------------|
-------------------------|-------------------------|-----------------------|
--14h----15----0----0----|--14h----15----0----0----|--7h----8----0----0----|


  PM    PM   PM   PM      PM    PM   PM   PM      PM     PM   PM   PM

-----------------------|-----------------------|------------------------|
-----------------------|-----------------------|------------------------|
-----------------------|-----------------------|------------------------|
-----------------------|-----------------------|------------------------|
-----------------------|-----------------------|------------------------|
--7h----8----0----0----|--7h----8----0----0----|--8h----10----0----0----|


   PM     PM   PM   PM       PM     PM   PM   PM       PM     PM

-------------------------|-------------------------|---------------|-------|
-------------------------|-------------------------|---------------|-------|
-------------------------|-------------------------|---------------|-------|
-------------------------|-------------------------|---------------|-------|
-------------------------|-------------------------|---------------|-------|
--10h----12----0----0----|--12h----14----0----0----|--14h----15----|-------|

Pre Chorus

-----------------------|------------------------|-------|-------|
-----------------------|------------------------|-------|-------|
-------10----9----7----|--9---------10----12----|--9----|-------|
--5x5------------------|-------5x5--------------|-------|-------|
--5x5---8----7----5----|--7----5x5---8----10----|--7----|-------|
--5x5------------------|-------5x5--------------|-------|-------|


Chorus

-----------------------|--------------|-------|
-----------------------|--------------|-------|
--2----5----7-----9----|--10----12----|-------|
--0----3----5-----7----|---8----10----|-------|
--0----3----5-----7----|---8----10----|-------|
--0----3----5S----7----|---8----10----|-------|

Bridge

------------------------|
------------------------|
------------------------|
--12-----5----0----0----|
--12-----5----0----0----|
--12S----5----0----0----|

                           PM   PM

------------------------|------------------------|------------------------|
------------------------|------------------------|------------------------|
------------------------|------------------------|------------------------|
--12-----5----0----0----|--7----8----12-----5----|--0----0----12-----5----|
--12-----5----0----0----|--7----8----12-----5----|--0----0----12-----5----|
--12S----5----0----0----|--7----8----12S----5----|--0----0----12S----5----|


  PM   PM

------------------|------------------------|------------------------|
------------------|------------------------|------------------------|
------------------|------------------------|------------------------|
--7----8----10----|--12-----5----0----0----|--12-----5----0----0----|
--7----8----10----|--12-----5----0----0----|--12-----5----0----0----|
--7----8----10----|--12S----5----0----0----|--12S----5----0----0----|


  PM   PM                                           PM   PM    PM    PM

------------------------|------------------------|------------------------|
------------------------|------------------------|------------------------|
------------------------|------------------------|------------------------|
--7----8----12-----5----|--0----0----12-----5----|--7----8----10----12----|
--7----8----12-----5----|--0----0----12-----5----|--7----8----10----12----|
--7----8----12S----5----|--0----0----12S----5----|--7----8----10----12----|

 Solo 1 (this is fairly accurate i believe)
|--------------------------|--------------------------|
|--------------------15----|--------------------------|
|--------------14----------|--14----15----------------|
|--14----15----------------|--------------14----15----|
|--------------------------|--------------------------|
|--------------------------|--------------------------|

--------------------------|--------------------------|
--------------------------|--------------------------|
--14----14----------------|--------------14----------|
--------------17----------|--14----15----------17----|
--------------------15----|--------------------------|
--------------------------|--------------------------|

--------------------------|--------------------------|
--------------------------|--------------------15----|
--15----15----14----14----|--------------14----------|
--------------------------|--14----15----------------|
--------------------------|--------------------------|
--------------------------|--------------------------|


--------------------------|--------------------------|
--17----18----------------|--------------------------|
--------------------------|--14----14----------15----|
--------------14----15----|--------------17----------|
--------------------------|--------------------------|
--------------------------|--------------------------|

--------------------------|--------------------------|-------------------------|
--------------------------|--------------------------|-------------------------|
--------------------14----|--------15----15----14----|-------------------------|
--------14----15----------|--17----------------------|--17----15----14----x----|
--15----------------------|--------------------------|-------------------------|
--------------------------|--------------------------|-------------------------|


Solo2  (not correct but this is what i play)
------------------------|----------------------------|-------------------------|
--8-----x----10----x----|--11----10h----11p----10----|--------8----10----11----|
------------------------|----------------------------|--10---------------------|
------------------------|----------------------------|-------------------------|
------------------------|----------------------------|-------------------------|
------------------------|----------------------------|-------------------------|

------------------------|------------------------|------------------------|
--8----8----10----11----|--8----8----10----11----|--8----8----10----11----|
------------------------|------------------------|------------------------|
------------------------|------------------------|------------------------|
------------------------|------------------------|------------------------|
------------------------|------------------------|------------------------|

------------------------|----------------------------|-------------------------|
--8-----x----10----x----|--11----10h----11p----10----|--------8----10----11----|
------------------------|----------------------------|--10---------------------|
------------------------|----------------------------|-------------------------|
------------------------|----------------------------|-------------------------|
------------------------|----------------------------|-------------------------|

--------------------------|------------------------|--------------8----10----|
--11----11----11----10----|--8----------8----10----|--11----11---------------|
--------------------------|-------10---------------|-------------------------|
--------------------------|------------------------|-------------------------|
--------------------------|------------------------|-------------------------|
--------------------------|------------------------|-------------------------|

--10----||
--------||
--------||
--------||
--------||
--------||


********* This goes after the first chorus and before the second verse

PM----------I

--------------||
--------------||
--------------||
--7-8-10-12---||
--7-8-10-12---||
--7-8-10-12---||




Song Order
----------
Intro x2
Verse x2
Pre Chorus
Chorus x2
Intro x2 + **** before the verse
Verse x2
Pre chorus
Chorus x2
Bridge
solo1
solo2
chorus x2
abreviated bridge

NOTES
-----

I did not inclue how many times to play each chord *most of the time* (solos i did and 
the bridge)
(listen to the song) (play the song) you should be able to figure that out fairly easily
I think this is a more accurate way of playing it versus some of the other tabs i have seen
i have seen them live and watched videos and i have played along with the song many many times
            
Submit corrections


        Lungs Like Gallows lessons Hard to play? Try these video lessons and learn fast Lungs Like Gallows lessons
        
↑ Back to top | Tablatures and chords for acoustic guitar and electric guitar, ukulele, drums are parodies/interpretations of the original songs. You may use it for private study, scholarship, research or language learning purposes only