» » »

Senses Fail - Lungs Like Gallows Tabs

Artists:  A B C D E F G H I J K L M N O P Q R S T U V W X Y Z # 

Lungs Like Gallows Tabs

(ver. 2) Click to play this song!
Senses Fail
 Rating:
4/5 (4 votes)

 Lungs Like Gallows lessons Tabs too difficult? Try these video lessons and learn fast
 
                ----------------------------------------------------------------------------
                       Senses Fail - Lungs Like Gallows
----------------------------------------------------------------------------
   This is my tab that's FINALLY tabbed out. It's really accurate, the only thing 
I didn't tab in this song is the solo. It's a great song. 

----------------------------------------------------------------------------
                                                           Please UPDATE*
                                                             
Tuning: Drop C

T- Tap
hb-Half Bend
fb-Full Bend
*- Palm Mute
..-Hold Bend
                           Written in C Minor

Intro

d----------------------------------------|------------------------------|
a----------------------------------------|------------------------------|
f----------------------------------------|------------------------------|
c--5/7--0-0-0-0-0--5/7-0--5-5-5-5--7-8-8-|------------------------------|
g--3/5--0-0-0-0-0--3/5-0--3-3-3-3--7-8-8-|-3h5-----5h7-----7h8-----8h10-|
c-------0-0-0-0-0------0-----------7-8-8-|-----0-0-----0-0-----0-0------|
                                               . .     . .     . .
Repeat Intro. And that's your Intro!


Verse

d------------|-------------|---------------------------------|
a------------|-------------|---------------------------------|
f------------|-------------|---------------------------------|
c------------|-------------|---------------------------------|
g--3h5-------|--0h1--------|-3h5-----5h7-----7h8-----8h10----|
c------0-0-0-|------0-0-0--|-----0-0-----0-0-----0-0---------|
       . . .        . . .        . .     . .     . .
<----6x------> <---3x---->

So now they repeat the verse and harmonize. Here's the Guitar 2 to the harmonizing !

d-----------|-------------|------------------------------------|
a-----------|-------------|------------------------------------|
f-----------|-------------|------------------------------------|
c-2h3-------|--0h2--------|-2h3-----3h5-----5h7-----7h8--------|
g-----------|-------------|------------------------------------|
c-----0-0-0-|------0-0-0--|-----0-0-----0-0-----0-0------------|
      . . .        . . .        . .     . .     . .
  <--6x-->     <---3x--->

Pre-Chorus

d-------------------------------------------|
a-------------------------------------------|
f-------10-10/9--9/7--7/9-------------------|
c--5-8--------------------------------------| Repeat !
g--5-8--8--8/7---7/5--5/7-------------------|
c--5-8--------------------------------------|


Chorus

d---------------------------------|
a---------------------------------|
f---------------------------------|  Repeat !
c-0-----3-----7---8----10---------|
g-0-----3-----7---8----10---------|
c-0-----3-----7---8----10---------|
  16x   14x   .  16x   16x


Ok, so now it goes to

Intro

This Intro's exactly the same except at the end of it do this.

d----------------------------------------------|
a----------------------------------------------|
f----------------------------------------------|
c----------------------------------------------|
g-3-5-5-5---5-7-7-7----7-8-8-8---8-10-10-10----|
c----------------------------------------------|
  . . . .   . . . .    . . . .   .  .  .  .
Palm mute it all


After that do the

Verse

Pre-Chorus

Chorus

and now the bridge


Bridge

d--------------------------------------------------------------------|
a--------------------------------------------------------------------|
f--------------------------------------------------------------------|
c-12\-----12\------------------------12\-----12\------5-5-5-5-5------|
g-12\-----12\------3-5-5-5---5-7-7-7-12\-----12\------3-3-3-3-3------|
c-12\-0-0-12\-0-0--------------------12\-0-0-12\-0-0-----------------|
                   . . . .   . . . .

d---------------------------------------------------------------------|
a---------------------------------------------------------------------|
f---------------------------------------------------------------------|
c-12\-----12\------------------------12\-----12\----------------------|
g-12\-----12\------3-5-5-5---5-7-7-7-12\-----12\-----3-5-5-5--5-7-7-7-|
c-12\-0-0-12\-0-0--------------------12\-0-0-12\-0-0------------------|
                   . . . .   . . . .                 . . . .  . . . .

d---------------------------------0~---------|
a---------------------------------0~---------|
f---------------------------------0~---------|
c------------------------0~-------0~---------|
g-7-8-8-8---8-10-10-10---0~-------0~---------|
c------------------------0~-------0~---------|
  . . . .   .  .  .  .


And now the solo...

I might tabb it in here depending on the rating of this tabb
So hope it's a 5-star ;)


After Solo it's

Chorus

than half the Bridge


That's it ENJOY! 

----------------------------------------------------------------------------
 /  slide up
| \  slide down
| h  hammer-on
| p  pull-off
| ~  vibrato
| +  harmonic
| x  Mute note
============================================================================
            
Submit corrections


        Lungs Like Gallows lessons Hard to play? Try these video lessons and learn fast Lungs Like Gallows lessons
        
↑ Back to top | Tablatures and chords for acoustic guitar and electric guitar, ukulele, drums are parodies/interpretations of the original songs. You may use it for private study, scholarship, research or language learning purposes only