» » »

Senses Fail - Lost And Found Tabs

Artists:  A B C D E F G H I J K L M N O P Q R S T U V W X Y Z # 

Lost And Found Tabs

(ver. 3) Click to play this song!
Senses Fail
 Rating:
4/5 (4 votes)

 Lost And Found lessons Tabs too difficult? Try these video lessons and learn fast
 
                
Tuning:drop d, guitar is one fret higher so play this song one fret lower.

guitar 1 intro
e|-----------------------------------------------|
B|--------------7------7----------7--------------|
G|---4--8----6------4------6--4------------------|
D|-6--6----4--4---2--2---4--4--------------------|
A|-----------------------------------------------|
E|-----------------------------------------------|

guitar 2 intro & verse
e|----14-14-14-14--12-12-12-12-12-14-14-12-12-11-11-11-12-12-12-12-12-14-14|
B|-12----------------------------------------------------------------------|
G|-------------------------------------------------------------------------|
D|-------------------------------------------------------------------------|
A|-------------------------------------------------------------------------|
E|-------------------------------------------------------------------------|

guitar 1 verse
e|------------------------|
B|------------------------|
G|-8-----6-----4-----6----|
D|-x-----x-----x-----x----|
A|-6-----4-----2-----4----|
E|------------------------|

guitar 1 riff
e|-----------------------------------------------|
B|-----------------------------------------------|
G|-4/6--8-9-8--4/6--8-9-8--6--8------------------|
D|-x/x--x-x-x--x/x--x-x-x--x--x------------------|
A|-2/4--6-7-6--2/4--6-7-6--4--6------------------|
E|-----------------------------------------------|

pre-chorus guitar 2
    .  .  .  .  .  .    .  .  .  .  .  .
e|---------------------------------------------------------------|
B|---------------------------------------------------------------|
G|---------------------------------------------------------------|
D|-14-14-14-14-14-14---16-16-16-16-16-16---16-16-16-16-16--------|
A|-14-14-14-14-14-14---16-16-16-16-16-16---16-16-16-16-16--------|
E|-14-14-14-14-14-14---16-16-16-16-16-16---16-16-16-16-16--------|

guitar 1 chorus
e|---------------------------------------------------------------------------|
B|---------------------------------------------------------------------------|
G|-8-8-8-8--9-9-9-9--6/8/9-9--8-8-8-8--9-9/8/4-4-4--8-8-8-8--9-9-9-9---------|
D|-x-x-x-x--x-x-x-x--x/x/x-x--x-x-x-x--x-x/x/x-x-x--x-x-x-x--x-x-x-x---------|
A|-6-6-6-6--7-7-7-7--4/6/7-7--6-6-6-6--7-7/6/2-2-2--6-6-6-6--7-7-7-7---------|
E|---------------------------------------------------------------------------|

e|------------------------------------------------------------|
B|------------------------------------------------------------|
G|-8-8-8-8--6/8/6--4------------------------------------------|
D|-x-x-x-x--x/x/x--x------------------------------------------|
A|-6-6-6-6--4/6/4--2------------------------------------------|
E|------------------------------------------------------------|

guitar 1 bridge
         . . .
e|---------------------------------------------------|
B|---------------------------------------------------|
G|-6--4----------------------------------------------|            X2
D|-x--x--4-4-4--4-4-4/6-6----------------------------|
A|-4--2--4-4-4--4-4-4/6-6----------------------------|
E|-------4-4-4--4-4-4/6-6----------------------------|


| /  slide up
| \  slide down
| h  hammer-on
| p  pull-off
| ~  vibrato
| +  harmonic
| x  Mute note
            
Submit corrections


        Lost And Found lessons Hard to play? Try these video lessons and learn fast Lost And Found lessons
        
↑ Back to top | Tablatures and chords for acoustic guitar and electric guitar, ukulele, drums are parodies/interpretations of the original songs. You may use it for private study, scholarship, research or language learning purposes only