» » »

Senses Fail - Lost And Found Tabs

Artists:  A B C D E F G H I J K L M N O P Q R S T U V W X Y Z # 

Lost And Found Tabs

(ver. 2) Click to play this song!
Senses Fail
 Rating:
4/5 (4 votes)

 Lost And Found lessons Tabs too difficult? Try these video lessons and learn fast
 
                Lost and Found
Drop D

Intro and Verse(0:00) (you cant hear some of these notes very well)
|----------------1----------1-|
|----3-----6------3------1-1--|
|--3-----3-----3---3---2--2---|
|-5-3---3-3---1-1-----3-3-----|
|-----------------------------|
|-----------------------------|

(0:31)
|-------------------------------------------|
|-------------------------------------------|
|-3-/-5-/-7-/-8-/-7~-3-/-5-/-7-/-8-/-7-/-5~-|
|-x-/-x-/-x-/-x-/-x~-x-/-x-/-x-/-x-/-x-/-x~-|
|-1-/-3-/-5-/-6-/-5~-1-/-3-/-5-/-6-/-5-/-3~-|
|-------------------------------------------|

Verse Part 2 (0:48)
|-------1~-1~-|
|-3~-6~-3~-1~-|
|-3~-3~-3~-2~-|
|-5~-3~-1~-3~-|
|-------------|
|-------------|

Pre Chorus (1:05)
|--------------------------------------------------|
|---------------------------------------------------|
|-8888888888888888-10101010101010101010101010101010-|
|-8888888888888888-10101010101010101010101010101010-|
|-6666666666666666--8-8-8-8-8-8-8-8-8-8-8-8-8-8-8-8-|
|---------------------------------------------------|
  ................  . . . . . . . . . . . . 

Chorus (1:13) (not exact strumming) (guitar 1)
|----------------------------------------|
|----------------------------------------|
|33333333333333-555-777777-1010-22222222-|
|xxxxxxxxxxxxxx-xxx-xxxxxx--x-x-xxxxxxxx-|
|11111111111111-333-555555--8-8-00000000-|
|----------------------------------------|

(guitar 2)
|-------------------------------------|
|-------------------------------------|
|-------------------33333333----------|
|-55555555-11111111-33333333-00000000-|
|-55555555-11111111-11111111-00000000-|
|-55555555-11111111----------00000000-|

Post Chorus (1:29) (guitar 1)
|-------------------------------------------|
|-------------------------------------------|
|-3-/-5-/-7-/-8-/-7~-3-/-5-/-7-/-8-/-7-/-5~-|
|-x-/-x-/-x-/-x-/-x~-x-/-x-/-x-/-x-/-x-/-x~-|
|-1-/-3-/-5-/-6-/-5~-1-/-3-/-5-/-6-/-5-/-3~-|
|-------------------------------------------|

(guitar 2)
|-------1~-1~-|
|-3~-6~-3~-1~-|
|-3~-3~-3~-2~-|
|-5~-3~-1~-3~-|
|-------------|
|-------------|

2nd Verse (1:45) (it’s a mix of these chords palm muted and open) (guitar 1)
|-----1-1-|
|-3-6-3-1-|
|-3-3-3-2-|
|-5-3-1-3-|
|---------|
|---------|

(guitar 2)
|-------1~-1~-|
|-3~-6~-3~-1~-|
|-3~-3~-3~-2~-|
|-5~-3~-1~-3~-|
|-------------|
|-------------|

Pre Chorus (2:01) (not 100% sure about this part) (guitar 1)
|---------|             |---11-|
|----6----|             |66-11-|
|--3--3-3-|Play     Then|33-22-|
|-5-5--5--|3 Times  Play|55-33-|
|---------|             |------|
|---------|             |------|

(guitar 2)
|------------------|     |-----------|
|------------------|     |-----------|
|-8-Strum-10-Strum-| Then|-1010-1010-|
|-8-16----10-8-----| Play|-1010-1010-|
|-6-Times--8-Times-|     |--8-8--8-8-|
|------------------|     |-----------|
  .        .

Chorus (2:09) (guitar 1)
|----------------------------------------|
|----------------------------------------|
|33333333333333-555-777777-1010-22222222-|
|xxxxxxxxxxxxxx-xxx-xxxxxx--x-x-xxxxxxxx-|
|11111111111111-333-555555--8-8-00000000-|
|----------------------------------------|

(guitar 2)
|-------------------------------------|
|-------------------------------------|
|-------------------33333333----------|
|-55555555-11111111-33333333-00000000-|
|-55555555-11111111-11111111-00000000-|
|-55555555-11111111----------00000000-|

Bridge (2:42)
|------------------------------------|
|------------------------------------|
|-5555555555555555-------------------|
|-5555555555555555-55xxx333-55xxx333-|
|-3333333333333333-55xxx333-55xxx333-|
|------------------55xxx333-55xxx333-|

Pre Chorus (2:58)
|-------------------------------------------------------------|
|-------------------------------------------------------------|
|-55555555-77777777-88888888-10101010101010101010101010101010-|
|-xxxxxxxx-xxxxxxxx-xxxxxxxx--x-x-x-x-x-x-x-x-x-x-x-x-x-x-x-x-|
|-33333333-55555555-66666666--8-8-8-8-8-8-8-8-8-8-8-8-8-8-8-8-|
|-------------------------------------------------------------|

Chorus (3:09) (guitar 1)
|----------------------------------------|
|----------------------------------------|
|33333333333333-555-777777-1010-22222222-|
|xxxxxxxxxxxxxx-xxx-xxxxxx--x-x-xxxxxxxx-|
|11111111111111-333-555555--8-8-00000000-|
|----------------------------------------|

(guitar 2)
|-------------------------------------|
|-------------------------------------|
|-------------------33333333----------|
|-55555555-11111111-33333333-00000000-|
|-55555555-11111111-11111111-00000000-|
|-55555555-11111111----------00000000-|
            
Submit corrections


        Lost And Found lessons Hard to play? Try these video lessons and learn fast Lost And Found lessons
        
↑ Back to top | Tablatures and chords for acoustic guitar and electric guitar, ukulele, drums are parodies/interpretations of the original songs. You may use it for private study, scholarship, research or language learning purposes only