» » »

Seether - Remedy Bass

Artists:  A B C D E F G H I J K L M N O P Q R S T U V W X Y Z # 

Remedy Bass

(ver. 1) Click to play this song!
Seether
 Rating:
4/5 (4 votes)


 Remedy lessons Tabs too difficult? Try these video lessons and learn fast
 
                Seether - Remedy

bass tab


5-stringed bass
G D A E B

   INTRO
G-|-----------|---|---------|
D-|-----------|---|---------|
A-|-----------|---|---------|
E-|---------2-|---|---------|
B-|-4--2442---|---|-4-44-22-|
       x3       +     x1                                                       
 
   VERSO
G-|--------------|-------------|
D-|--------------|-------------|
A-|--------------|-------------|
E-|--------------|-------------|
B-|-4-444\2-222/-|-4-444/7-777-|
                                                                              

   PRE-CORO
G-|---------------|
D-|---------------|
A-|---------------|
E-|-444444-000000-|
B-|---------------|
                                                                              

   CORO
G-|-----------|---|-----------|
D-|-----------|---|-----------|
A-|-----------|---|-----------|
E-|---------2-|---|----44-222-|
B-|-4--2442---|---|-4---------|
       x3       +      x1                                                      
 
   MIDDLE
G-|-------------------|-----------|---------------------|
D-|-------------------|-----------|---------------------|
A-|-------------------|-----------|---------------------|
E-|-77777777-44444444-|-----------|-77777777-444444-----|
B-|-------------------|-----------|-----------------2---|
                        variacion                                              

Le mando congratulaciones a La Andrea Sanjines que esta pues en la facultad donde 
estudio tambien y que se tarea cuando explota una casa de stege cerca de un pastizal
mas todavia cuando El Antony les hizo asustar en el auto.

doky2007
            
Submit corrections



        Remedy lessons Hard to play? Try these video lessons and learn fast Remedy lessons
        
↑ Back to top | Tablatures and chords for acoustic guitar and electric guitar, ukulele, drums are parodies/interpretations of the original songs. You may use it for private study, scholarship, research or language learning purposes only