» » »

Seether - Fine Again Acoustic Tabs

Artists:  A B C D E F G H I J K L M N O P Q R S T U V W X Y Z # 

Fine Again Acoustic Tabs

(ver. 1) Click to play this song!
Seether
 Rating:
4.3/5 (21 vote)

 Fine Again Acoustic lessons Tabs too difficult? Try these video lessons and learn fast
 
                [Intro]

e|---------------------|---------------------|
B|---------------------|---------------------|
G|---------------------|---------------------|
D|--x---x---x---x--x-x-|------4--------7-----|
A|--x---x---x---x--x-x-|----4--------7---7---|
E|--x---x---x---x--x-x-|--2-----2--5---------|

e|---------------------|---------------------|
B|--------3-3--3---3---|---------------------|
G|----1---2-2--2---2---|---------------------|
D|------2-0-0--0---0---|------4--------7-x-x-|
A|--------0-0--0---0---|----4--------7---x-x-|
E|--0------------------|--2-----2--5-----x-x-|

e|---------------------|
B|------------3--3-----|
G|------------2--2-----|
D|---2---x-x--0--0-x-x-|
A|-----2-x-x-------x-x-|
E|-0-----x-x-------x-x-|

[Verse 1]

e|---------------------------|---------------------------|
B|---------------------------|-----------------3--3--3-3-|
G|-----------------2--2--2-2-|-----------------2--2--2-2-|
D|--4---4--4-4-4-4-2--2--2-2-|--2---2--2-2-2-2-0--0--0-0-| x8
A|--4---4--4-4-4-4-0--0--0-0-|--2---2--2-2-2-2-----------|
E|--2---2--2-2-2-2-----------|--0---0--0-0-0-0-----------|

[Chorus]

e|---------------------------|-----------------0--0--0-0-|
B|-----------------3--3--3-3-|-----------------0--0--0-0-|
G|-----------------2--2--2-2-|-----------------x--x--x-x-|
D|--4---4--4-4-4-4-0--0--0-0-|--4---4--4-4-4-4-2--2--2-2-| x4
A|--4---4--4-4-4-4-----------|--2---2--2-2-2-2-2--2--2-2-|
E|--2---2--2-2-2-2-----------|--2---2--2-2-2-2-0--0--0-0-|

e|---------------------------|-----------------0---------|
B|---------------------------|-------------------3-------|
G|---------------------------|----1----------------------|
D|--------4----------7-x-x---|------2-x-x----0-----x-x---|
A|------4----------7---x-x---|--------x-x----------x-x---|
E|----2-----2----5-----x-x---|--0-----x-x----------x-x---|

[Verse 2]

e|---------------------------|---------------------------|
B|---------------------------|-----------------3--3--3-3-|
G|-----------------2--2--2-2-|-----------------2--2--2-2-|
D|--4---4--4-4-4-4-2--2--2-2-|--2---2--2-2-2-2-0--0--0-0-| x8
A|--4---4--4-4-4-4-0--0--0-0-|--2---2--2-2-2-2-----------|
E|--2---2--2-2-2-2-----------|--0---0--0-0-0-0-----------|

[Chorus]

e|---------------------------|-----------------0--0--0-0-|
B|-----------------3--3--3-3-|-----------------0--0--0-0-|
G|-----------------2--2--2-2-|-----------------x--x--x-x-|
D|--4---4--4-4-4-4-0--0--0-0-|--4---4--4-4-4-4-2--2--2-2-| x4
A|--4---4--4-4-4-4-----------|--2---2--2-2-2-2-2--2--2-2-|
E|--2---2--2-2-2-2-----------|--2---2--2-2-2-2-0--0--0-0-|

[Bridge]
                                                 P.M.....
e|----------0----------------|---------------------------|
B|-------------3-------------|---------------------------|
G|--2---2------------2-------|-------4--------4--4--4-4--|
D|--0---0---------0----------|----4--------4-----4--4-4--| x4
A|---------------------------|-2--------2--------2--2-2--|
E|---------------------------|---------------------------|

[Instrumental]

e|---------------------------|-----------------0--0--0-0-|
B|-----------------3--3--3-3-|-----------------0--0--0-0-|
G|-----------------2--2--2-2-|-----------------x--x--x-x-|
D|--4---4--4-4-4-4-0--0--0-0-|--4---4--4-4-4-4-2--2--2-2-| x2
A|--4---4--4-4-4-4-----------|--2---2--2-2-2-2-2--2--2-2-|
E|--2---2--2-2-2-2-----------|--2---2--2-2-2-2-0--0--0-0-|

[Chorus]

e|---------------------------|-----------------0--0--0-0-|
B|-----------------3--3--3-3-|-----------------0--0--0-0-|
G|-----------------2--2--2-2-|-----------------x--x--x-x-|
D|--4---4--4-4-4-4-0--0--0-0-|--4---4--4-4-4-4-2--2--2-2-| x10
A|--4---4--4-4-4-4-----------|--2---2--2-2-2-2-2--2--2-2-|
E|--2---2--2-2-2-2-----------|--2---2--2-2-2-2-0--0--0-0-|

e|---------------------------|
B|---------------------------|
G|---------------------------|
D|-4-------------------------|
A|-4-------------------------|
E|-2-------------------------|

            
Submit corrections


        Fine Again Acoustic lessons Hard to play? Try these video lessons and learn fast Fine Again Acoustic lessons
        
↑ Back to top | Tablatures and chords for acoustic guitar and electric guitar, ukulele, drums are parodies/interpretations of the original songs. You may use it for private study, scholarship, research or language learning purposes only