» » »

Secondhand Serenade - Vulnerable Tabs

Artists:  A B C D E F G H I J K L M N O P Q R S T U V W X Y Z # 

Vulnerable Tabs

(ver. 3) Click to play this song!
Secondhand Serenade
 Rating:
4/5 (4 votes)

 Vulnerable lessons Tabs too difficult? Try these video lessons and learn fast
 
                The Real Way to Play Vulnerable..This is how he does it..i have this one down..

**I Wrote the word where the chord change occurs**


-------------------------------------------------------------------------------
                             Vulnerable - Secondhand Serenade
-------------------------------------------------------------------------------

Tuning:Standard

INTRO

e|-----3---1-0----------3-------3---1-0----------3----|
B|---------------1------1-----------------1------1----|
G|---0---0-----0------0-------0---0-----0------0------|
D|----------------------------------------------------|
A|-3------------------------3----------------1--------|
E|------------------1---------------------------------|


Verse

  Share...wrapped..cold...cold
e|-0-3-1-0-3-3-3-3-0-3-1-0-0>------|
B|-1-1-1-1-1-1-1-1-1-1-1-1-1>------|
G|-0-0-0-0-0-0-0-0-0-0-0-0-0>------|
D|-2-2-2-2-3-3-3-3-2-2-2-2-3>------|
A|-3-3-3-3-3-3-3-3-3-3-3-3-3>------|
E|-x-x-x-x-x-x-x-x-x-x-x-x-1>------|

   Share....kept...cold....cold
e|-0-3-1-0-3-3-3-3-0-3-1-0-0-0-0---|
B|-1-1-1-1-1-1-1-1-1-1-1-1-1-1-1---|
G|-0-0-0-0-0-0-0-0-0-0-0-0-0-0-0---|
D|-2-2-2-2-3-3-3-3-2-2-2-2-2-2-2---|
A|-3-3-3-3-3-3-3-3-0-0-0-0-3-3-3---|
E|-x-x-x-x-x-x-x-x-x-x-x-x-3-3-3---|


Pre-Chorus

  Slowly..show..so..know u may..know we're
e|-0-0>---0-0>--0-0--0-0-0-0-0--0-0-0-0----|
B|-1-1>---1-1>--1-1--1-1-1-1-1--1-1-1-1----|
G|-0-0>---0-0>--0-0--0-0-0-0-0--0-0-0-0----|
D|-3-3>---2-2>--2-2--3-3-3-3-3--2-2-2-2----|
A|-3-3>---3-3>--0-0--3-3-3-3-3--3-3-3-3----|
E|-1-1>---x-x---x-x--1-1-1-1-1--x-x-x-x----|

Chorus
   Tell..makes..invincible..see..eyes..sure..i'm..vulnerable..impossible
e|-0-----0--------0---------0-----0----0------0-----0>---------0---------|
B|-1-----1--------1---------1-----1----1------1-----1>---------1---------|
G|-0-----0--------0---------0-----0----0------0-----0>---------0---------|
D|-2-----0--------3---------2-----0----2------0-----3>---------3---------|
A|-3-----2--------3---------0-----2----3------2-----3>---------3---------|
E|-x-----x--------1---------x-----3----x------x-----1>---------x---------|

Verse 2...follow the guideline from verse on and you'll get it

Pre-Chorus

Chorus

Brigde
   slow....down....girl............anywhere...wait
e|-----------------------------------0--------0----------|
B|-----1-------1-------1-------1-----1--------1----------|
G -------0-------0-------0-------0---0--------0----------|   (x4)
D|---2-------2-------2-------2-------3--------2----------|
A|-0-------2-------3-------3---------3--------3----------|
E|-----------------------------------1--------x----------|
  You can strum these chords after
    the first picking pattern

Chorus
            
Submit corrections


        Vulnerable lessons Hard to play? Try these video lessons and learn fast Vulnerable lessons
        
↑ Back to top | Tablatures and chords for acoustic guitar and electric guitar, ukulele, drums are parodies/interpretations of the original songs. You may use it for private study, scholarship, research or language learning purposes only