Home » S » Secondhand Serenade »

Secondhand Serenade - Take Me With You Tabs

Artists:  A B C D E F G H I J K L M N O P Q R S T U V W X Y Z # 

Take Me With You Tabs

(ver. 2) Click to play this song!
Secondhand Serenade
 Rating:
4/5 (4 votes)
                Take Me With You - Secondhand Serenade

I'm almost 100% certain this is correct.

The chords for this are

E - 012200
Esus4 - 002200
Bsus4 - 022400
C#m7 - 046600
Esus2 - 024400
 

     E               Esus4         Bsus4         Bsus4
     
     E E E E E E Q   E E E E Q Q   E E E E Q Q   E E E E E E E 
D#||-----------0---|---------0---|---------0---|---------4-0-----|
A#||-------------0-|-----------0-|-----------0-|-------------0---|
F#||-------1-------|-----2-------|-----4-------|-----4---------4-|
C#||-----2---2-----|---2---2-----|---2---2-----|---2---2---------|
G#||-2-------------|-------------|-------------|-----------------|
D#||---0-----------|-0-----------|-0-----------|-0---------------|


 E             Esus4         Bsus4             Bsus4                  

 E E E E Q Q   H   E E E E   E E E E E E E E   W
---------0---|-----0-------|---------0-------|---------|
-----------0-|-------0-----|-----------0-----|---------|
-----1-------|---------2---|-----4---------4-|---------|
---2---2-----|-----------2-|---2---2-----2---|-2-------|
-------------|-0-----------|-----------------|---------|
-0-----------|-0-----------|-0---------------|---------|

 E             Esus4         C#m7
 
 E E E E H     E E E E H     E E E E H     E E E E E E E E
-0-0-0-0-0---|-0-0-0-0-0---|-0-0-0-0-0---|-0-0-0-0-0-0-0-0-|
-1-1-1-1-1---|-0-0-0-0-0---|-0-0-0-0-0---|-0-0-0-0-0-0-0-0-|  Do this twice
-2-2-2-2-2---|-2-2-2-2-2---|-6-6-6-6-6---|-4-4-4-4-4-6-6-6-|
-2-2-2-2-2---|-2-2-2-2-2---|-6-6-6-6-6---|-4-4-4-4-4-6-6-6-|
-0-0-0-0-0---|-0-0-0-0-0---|-4-4-4-4-4---|-2-2-2-2-2-4-4-4-|
-0-0-0-0-0---|-0-0-0-0-0---|-0-0-0-0-0---|-0-0-0-0-0-0-0-0-|

On the second time through Guitar 2 does this

Guitar 2:

  S S S S S S S S S S S S S S S S   S S S S S S S S S S S S S S S S
|---------------------------------|---------------------------------|
|-8-8-8-8-8-8-8-8-8-8-8-8-8-8-8-8-|-9-9-9-9-9-9-9-9-9-9-9-9-9-9-9-9-|
|-x-x-x-x-x-x-x-x-x-x-x-x-x-x-x-x-|-x-x-x-x-x-x-x-x-x-x-x-x-x-x-x-x-|
|-5-5-5-5-5-5-5-5-5-5-5-5-5-5-5-5-|-6-6-6-6-6-6-6-6-6-6-6-6-6-6-6-6-|
|---------------------------------|---------------------------------|
|---------------------------------|---------------------------------|


  S S S S S S S S S S S S S S S S   S S S S S S S S S S S S S S S S 
|---------------------------------|---------------------------------|
|-4-4-4-4-4-4-4-4-4-4-4-4-4-4-4-4-|---------------------------------|
|-x-x-x-x-x-x-x-x-x-x-x-x-x-x-x-x-|-7-7-7-7-7-7-7-7-7-7-7-7-7-7-7-7-|
|-1-1-1-1-1-1-1-1-1-1-1-1-1-1-1-1-|-x-x-x-x-x-x-x-x-x-x-x-x-x-x-x-x-|
|---------------------------------|-5-5-5-5-5-5-5-5-5-5-5-5-5-5-5-5-|
|---------------------------------|---------------------------------|


Verse:



  PM-------------------------------------------------------------------|
  E E E E E E E E   E E E E E E E E   E E E E E E E E   E E E E E E E E
|-----------------|-----------------|-----------------|-----------------|
|-----------------|-----------------|-----------------|-----------------|
|-1-1-1-1-1-1-1-1-|-2-2-2-2-2-2-2-2-|-6-6-6-6-6-6-6-6-|-4-4-4-4-4-4-4-4-|  x2
|-2-2-2-2-2-2-2-2-|-2-2-2-2-2-2-2-2-|-6-6-6-6-6-6-6-6-|-4-4-4-4-4-4-4-4-|
|-2-2-2-2-2-2-2-2-|-0-0-0-0-0-0-0-0-|-4-4-4-4-4-4-4-4-|-2-2-2-2-2-2-2-2-|
|-----------------|-----------------|-----------------|-----------------|

 
          PM-------------------------------------------------|
  W       E E E E E E E E   E E E E E E E E   E E E E E E E E
|-0-----|-----------------|-----------------|-----------------|
|-0-----|-----------------|-----------------|-----------------|
|-1-----|-2-2-2-2-2-2-2-2-|-6-6-6-6-6-6-6-6-|-4-4-4-4-4-4-4-4-|
|-2-----|-2-2-2-2-2-2-2-2-|-6-6-6-6-6-6-6-6-|-4-4-4-4-4-4-4-4-|
|-2-----|-0-0-0-0-0-0-0-0-|-4-4-4-4-4-4-4-4-|-2-2-2-2-2-2-2-2-|
|-0-----|-----------------|-----------------|-----------------|

Pre Chorus:


Guitar 1

  PM-------------------------------------------------------------------|
  E E E E E E E E   E E E E E E E E   E E E E E E E E   E E E E E E E E
|-----------------|-----------------|-----------------|-----------------|
|-----------------|-----------------|-----------------|-----------------|
|-1-1-1-1-1-1-1-1-|-2-2-2-2-2-2-2-2-|-6-6-6-6-6-6-6-6-|-4-4-4-4-4-4-4-4-|  x2
|-2-2-2-2-2-2-2-2-|-2-2-2-2-2-2-2-2-|-6-6-6-6-6-6-6-6-|-4-4-4-4-4-4-4-4-|
|-2-2-2-2-2-2-2-2-|-0-0-0-0-0-0-0-0-|-4-4-4-4-4-4-4-4-|-2-2-2-2-2-2-2-2-|
|-----------------|-----------------|-----------------|-----------------|

Guitar 2


  PM-------------------------------------------------------------------|
|-----------------|-----------------|-----------------|-----------------|
|-8-8-8-8-8-8-8-8-|-9-9-9-9-9-9-9-9-|-4-4-4-4-4-4-4-4-|-4-4-4-4-4-4-4-4-|
|-x-x-x-x-x-x-x-x-|-x-x-x-x-x-x-x-x-|-x-x-x-x-x-x-x-x-|-x-x-x-x-x-x-x-x-|  x2
|-5-5-5-5-5-5-5-5-|-6-6-6-6-6-6-6-6-|-1-1-1-1-1-1-1-1-|-1-1-1-1-1-1-1-1-|
|-----------------|-----------------|-----------------|-----------------|
|-----------------|-----------------|-----------------|-----------------|


Chorus

Chords:

Guitar 1

|-0----|-0----|-0----|-0----|
|-0----|-0----|-0----|-0----|
|-1----|-2----|-6----|-4----|
|-2----|-2----|-6----|-4----|
|-2----|-0----|-4----|-2----|
|-0----|-0----|-0----|-0----|


Guitar 2

|------|------|------|------|
|-4----|------|-8----|-9----|
|-x----|-7----|-x----|-x----|
|-1----|-x----|-5----|-6----|
|------|-5----|------|------|
|------|------|------|------|

Verse 2: (Same as verse 1)

Bridge:

|-----0--------|-------------|-------------|
|---0---0------|-------------|-------------|
|--------------|-------------|-------------|
|--------------|-------------|-------------|
|-4-------4----|-0-----0-----|-------------|
|--------------|-------------|-0-----0-----|
            
Submit corrections

↑ Back to top | Tablatures and chords for acoustic guitar and electric guitar, ukulele, drums are parodies/interpretations of the original songs. You may use it for private study, scholarship, research or language learning purposes only