» » »

Secondhand Serenade - It's Not Over Tabs

Artists:  A B C D E F G H I J K L M N O P Q R S T U V W X Y Z # 

It's Not Over Tabs

(ver. 1) Click to play this song!
Secondhand Serenade
 Rating:
4/5 (4 votes)

 It's Not Over lessons Tabs too difficult? Try these video lessons and learn fast
 
                It's Not Over by Secondhand Serenade

Standard Tuning
Capo 2nd fret

Intro/Verse             * = play only for pre-chorus
e----0----0---0---0---0---0---0---0---0*----0*----|
B---0-0--0-0-0-0-0-0-0-0-0-0-0-0-0-0-0*-0*-0*-0*--|
G-11---11---6---6---8---8---4---4---4*---4*-------|
D-------------------------------------------------|
A-------------------------------------------------|
E-------------------------------------------------|

Chorus Guitar 1
e6-6-6-6h7-4-4-4-4-6-6-6-6-9-9-9-9-6-6-6-6h7-4-4-4-4-6-6-6-6-7-7-7-7-7-7-7-7|
B---------------------------------------------------------------------------|
G---------------------------------------------------------------------------|
D---------------------------------------------------------------------------|
A---------------------------------------------------------------------------|
E---------------------------------------------------------------------------|

Verse Palm Mute/Chorus Guitar 2
e-----------------------------------------------|
B-----------------------------------------------|
G--------------66666666---66666666---44444444---|
D--44444444---66666666---44444444---44444444----|
A--44444444---44444444---66666666---22222222----|
E--22222222-------------------------------------|

Bridge
e------------------------|
B------------------------|
G--------4444---66666666-|
D-4444--4444----66666666-|
A-4444--2222----44444444-|
E-2222-------------------|

I'm still working on the riff for the bridge and I'll be sure to get it up here once 
figured it out. Everything else for the most part I think is pretty accurate, so there you go
            
Submit corrections


        It's Not Over lessons Hard to play? Try these video lessons and learn fast It's Not Over lessons
        
↑ Back to top | Tablatures and chords for acoustic guitar and electric guitar, ukulele, drums are parodies/interpretations of the original songs. You may use it for private study, scholarship, research or language learning purposes only