Home » S » Secondhand Serenade »

Secondhand Serenade - Half Alive Tabs

Artists:  A B C D E F G H I J K L M N O P Q R S T U V W X Y Z # 

Half Alive Tabs

(ver. 2) Click to play this song!
Secondhand Serenade
 Rating:
4/5 (4 votes)
                Verse
x2
E|------------------------------------------------------------------|
B|------------------------------------------------------------------|
G|------7-------7-------4-------4-------6-------6-------4-------4---|
D|----0---0---0---0---0---0---0---0---0---0---0---0---0---0---0---0-|
A|--5-------5-------2-------2-------4-------4-------2-------2-------|
E|------------------------------------------------------------------|

Chorus
strumming   x3
E|------------------|
B|------------------|
G|--7---4---6---4---|
D|--0---0---0---0---|
A|--5---2---4---2---|
E|------------------|

Going into 2nd verse

E|----------------------------------------|
B|----------------------------------------|
G|------7---------4---------6---------4---|
D|----0---0-----0---0-----0---0-----0---0-|
A|--5---------2---------4---------2-------|
E|----------------------------------------|

Verse
x2
E|------------------------------------------------------------------|
B|------------------------------------------------------------------|
G|------7-------7-------4-------4-------6-------6-------4-------4---|
D|----0---0---0---0---0---0---0---0---0---0---0---0---0---0---0---0-|
A|--5-------5-------2-------2-------4-------4-------2-------2-------|
E|------------------------------------------------------------------|

Chorus
strumming   x3
E|------------------|
B|------------------|
G|--7---4---6---4---|
D|--0---0---0---0---|
A|--5---2---4---2---|
E|------------------|



thats all i know :)
hope you like it
            
Submit corrections

↑ Back to top | Tablatures and chords for acoustic guitar and electric guitar, ukulele, drums are parodies/interpretations of the original songs. You may use it for private study, scholarship, research or language learning purposes only