Home » S » Secondhand Serenade »

Secondhand Serenade - Goodbye Tabs

Artists:  A B C D E F G H I J K L M N O P Q R S T U V W X Y Z # 

Goodbye Tabs

(ver. 1) Click to play this song!
Secondhand Serenade
 Rating:
4/5 (4 votes)
                                                     GOODBYE
                       As recorded by Secondhand Serenade
                    (From the 2008 Album A TWIST IN MY STORY)


          
   E5                   E5/C#              E7sus4/A              Badd11
      
x 7 9 9 0 0          9 x 9 x 0 0          x 0 7 7 0 0          7 x 9 8 0 0


* Tune a half-step down (Low to High) Eb-Ab-Db-Gb-Bb-Eb 
* On the second Pre-Chorus, play the pattern for Bar 4 at Bar 8.


         
 Intro
  E5                                  E5/C#
 4/4
  Gtr I
  E E E E E E E E   E E E E E E E E   E E E E E E E E   E E E E E E E E
|---------0-------|---------0-------|---------0-------|---------0--------|
|-----0---------0-|-----0---------0-|-----0-----0---0-|-----0-----0---0--|
|-----------9-----|-----------9-----|-----------------|------------------|
|---9---9-----9---|---9---9-----9---|---9---9-----9---|---9---9-----9----|
|-7---------------|-7---------------|-----------------|------------------|
|-----------------|-----------------|-9---------------|-9----------------|


  E7sus4/A                            E5                Badd11
  E E E E E E E E   E E E E E E E E   E E E E E E E E   E E E E E E E E
|---------0-------|---------0-------|---------0-------|---------0--------||
|-----0---------0-|-----0---------0-|-----0---------0-|---0-----------0--||
|-----------9-----|-----------9-----|-----------9-----|-----8-----8------||
|---9---9-----9---|---9---9-----9---|---9---9-----9---|-------9-----9----||
|-0---------------|-0---------------|-7---------------|------------------||
|-----------------|-----------------|-----------------|-7----------------||


   Verse
    E5                                  E5/C#
    E E E E E E E E   E E E E E E E E   E E E E E E E E   E E E E E E E E
||----------0-------|---------0-------|---------0-------|---------0-------|
||o-----0---------0-|-----0---------0-|-----0-----0---0-|-----0-----0---0-|
||------------9-----|-----------9-----|-----------------|-----------------|
||----9---9-----9---|---9---9-----9---|---9---9-----9---|---9---9-----9---|
||o-7---------------|-7---------------|-----------------|-----------------|
||------------------|-----------------|-9---------------|-9---------------|


  E7sus4/A                            E5                Badd11
  E E E E E E E E   E E E E E E E E   E E E E E E E E   E E E E E E E E
|---------0-------|---------0-------|---------0-------|---------0---------||
|-----0---------0-|-----0---------0-|-----0---------0-|---0-----------0--o||
|-----------9-----|-----------9-----|-----------9-----|-----8-----8-------||
|---9---9-----9---|---9---9-----9---|---9---9-----9---|-------9-----9-----||
|-0---------------|-0---------------|-7---------------|------------------o||
|-----------------|-----------------|-----------------|-7-----------------||


 Pre-Chorus
  E7sus4/A       Badd11            E5/C#          E5
  E E E E H      E E E E E E E E   E E E E H      E E E E E E E E
|---------0----|---0-----0-------|---------0----|---------0--------|
|-----0--------|-----0---------0-|-----0--------|-----0-----0---0--|
|--------------|-----------8-----|--------------|------------------|
|---9---9------|-------9-----9---|---9---9------|---9---9-----9----|
|-0------------|-----------------|--------------|-7----------------|
|--------------|-7---------------|-9------------|------------------|
                                                * Play the Bar 4 pattern
                                                  on the second Pre-Chorus
                                                 at Bar 8 (below).
  E7sus4/A       Badd11            E5/C#             E5
  E E E E H      E E E E E E E E   E E E E E E E E   W
|---------0----|---0-----0-------|---------0-------|------||
|-----0--------|-----0---------0-|-----0---------0-|------||
|--------------|-----------8-----|-----------9-----|------||
|---9---9------|-------9-----9---|---9---9-----9---|------||
|-0------------|-----------------|-----------------|-7----||
|--------------|-7---------------|-9---------------|------||
            
Submit corrections

↑ Back to top | Tablatures and chords for acoustic guitar and electric guitar, ukulele, drums are parodies/interpretations of the original songs. You may use it for private study, scholarship, research or language learning purposes only