Home » S » Say Hi To Your Mom »

Say Hi To Your Mom - Lets Talk About Space Ships Tabs

Artists:  A B C D E F G H I J K L M N O P Q R S T U V W X Y Z # 

Lets Talk About Space Ships Tabs

(ver. 1) Click to play this song!
Say Hi To Your Mom
(Intro)
-------------------------------------------------------------------------------
                             SONG NAME - Band Name
-------------------------------------------------------------------------------

Tuning:

e|---------------------------------------------------------------------------|
B|---------------------------------------------------------------------------|
G|---------------------------------------------------------------------------|
D|---------------------------------------------------------------------------|
A|--11-11-11-11-11-11-11-10-10-10-10-10-10-10-11-11-11-11-11-11-11-11--------|
E|--9--9--9--9--9--9--9--9--9--9--9--9--9--9--9--9--9--9--9--9--9--9---------|

e|-----------------------------------------------------------------------------|
B|-----------------------------------------------------------------------------|
G|-----------------------------------------------------------------------------|
D|-----------------------------------------------------------------------------|
A|-11-11-11-11-11-11-11--------------------------------------------------------|
E|-9--9--9--9--9--9--9---------------------------------------------------------|

e|---------------------------------------------------------------------------|
B|---------------------------------------------------------------------------|
G|---------------------------------------------------------------------------|
D|---------------------------------------------------------------------------|
A|-4-4-4-4-4-4-4-4-4-4-4-4-4-------------------------------------------------|
E|-2-2-2-2-2-2-2-2-2-2-2-2-2-------------------------------------------------|
repeat last part twice

And that is basically it for the intro. It's mostly the same throughout the song, but i 

| /  slide up
|   slide down
| h  hammer-on
| p  pull-off
| ~  vibrato
| +  harmonic
| x  Mute note
===============================================================================
            
Submit corrections

↑ Back to top | Tablatures and chords for acoustic guitar and electric guitar, ukulele, drums are parodies/interpretations of the original songs. You may use it for private study, scholarship, research or language learning purposes only