» » »

Say Hi To Your Mom - Lets Talk About Space Ships Tabs

Artists:  A B C D E F G H I J K L M N O P Q R S T U V W X Y Z # 

Lets Talk About Space Ships Tabs

(ver. 2) Click to play this song!
Say Hi To Your Mom
 Rating:
4/5 (6 votes)

 Lets Talk About Space Ships lessons Tabs too difficult? Try these video lessons and learn fast
 
                ok this is my first tab so dont be too mad
this is how me and skyler play it for our band, Shaggin Wagon.. come check us out sometime

intro
e ----------------------------------------------------------|
B --------3-------------------------------------------------|
G --2-2-2-2-2-2-2-1-1-1-1-1-1-1-2-2-2-2-2-2-2-1-1-1-1-1-1-1-|
D ----------------------------------------------------------|
A ----------------------------------------------------------|
E ----------------------------------------------------------|

e ----------------------------------------------------------|
B ----------------------------------------------------------|
G ----------------------------------------------------------|
D -0-0-0-0-0-0-0-0-0-0-0-0-0-0-0-0-0-0-0-0-0-0-0-0-0-0-0-0--|
A ----------------------------------------------------------|
E ----------------------------------------------------------|
i dont know how many times we play this part.

verse
e -----------------------------------------------------------|
B -----------------------------------------------------------|
G -0-0-0-0-0-0-0-0-0-0-0-0-0-0-0-0-0-0-0-0-0-0-0-0-0-0-0-0-0-|
D -----------------------------------------------------------|
A -----------------------------------------------------------|
E -----------------------------------------------------------|

e -----------------------------------------------------------|
B -----------------------------------------------------------|
G -----------------------------------------------------------|
D -0-0-0-0-0-0-0-0-0-0-0-0-0-0-0-0-0-0-0-0-0-0-0-0-0-0-0-0-0-|
A -----------------------------------------------------------|
E -----------------------------------------------------------|
again i dont know how many times we play it.

chorus
e ----------------------------------------------------------|
B ----------------------------------------------------------|
G -3-3------------6-6-6-------------------------------------|
D -3-3--6--4-4-4--6-6-6-6-6---------------------------------| X 2
A -1-1--6--4-4-4--4-4-4-6-6---------------------------------|
E ------4--2-2-2--------4-4---------------------------------|

bride
e ----------------------------------------------------------|
B ----------------------------------------------------------|
G ----------------------------------------------------------|
D -4-5-4-0------4-5-4-0-0-----------------------------------|
A ---------0------------5-----------------------------------|
E ----------------------------------------------------------|

solo
e ----------------------------------------------------------|
B -------3---2------------3---2---3--------3---2------------|
G -2-2-2---2---2-2--2-2-2---2---2----2-2-2---2---2-2--------|
D ----------------------------------------------------------| X 2
A ----------------------------------------------------------|
E ----------------------------------------------------------|


intro
verse
chorus
bridge
verse
chorus
bridge
bridge + solo
chorus
bridge


alrite thats it. listen to the song to know exactly when to play each part. again this
my first tab so dont get ur hopes up. the bass is pretty easy also. i dont know how colby
it and the drum part isnt too hard. johns pretty good at it. me and skyler play these 
together then split up durin the bridge and solo part. i just play the bridge over
over again til he's done. alrite good luck
            
Submit corrections


        Lets Talk About Space Ships lessons Hard to play? Try these video lessons and learn fast Lets Talk About Space Ships lessons
        
↑ Back to top | Tablatures and chords for acoustic guitar and electric guitar, ukulele, drums are parodies/interpretations of the original songs. You may use it for private study, scholarship, research or language learning purposes only