Home » S » Sara Evans »

Sara Evans - Suds In The Bucket Tabs

Artists:  A B C D E F G H I J K L M N O P Q R S T U V W X Y Z # 

Suds In The Bucket Tabs

(ver. 2) Click to play this song!
Sara Evans
 Rating:
4/5 (4 votes)
                (2)
This is my 1st tab. I capo the 1st fret.  I'm also working on the intro and 
fill ins.  Let me know what you think.



/=slide up
h=hammer on
p=pull off
^=bend and release
b=bend
&=rest
x=muted note
-=1/32 note


E|---------|-------------------------------|-------------------------------|
B|---------|-------------------------------|-------------------------------|
G|---------|-------------------------------|-------------------------------|
D|---------|----3-------3---5---5---3---5--|3------------------------------|
A|-&-1-3-1-|3/5---x-3/5---5-----------5----|--5-3p1—3b-b4b43^3-1---1-----3/|
E|---------|-------------------------------|---------------------3---------|

E|----------------------------|-------------------------------|
B|----------------------------|-------------------------------|
G|--3---------3-----------3---|5b5b5r3------------------------|
D|5---5-3-3h5---5—3h5-3h5---5—|--------5b5b5r3----------------|
A|----------------------------|----------------3-4^--1--------|
E|----------------------------|-------------------------------|
            
Submit corrections

↑ Back to top | Tablatures and chords for acoustic guitar and electric guitar, ukulele, drums are parodies/interpretations of the original songs. You may use it for private study, scholarship, research or language learning purposes only