Home » S » Sara Evans »

Sara Evans - Suds In The Bucket Tabs

Artists:  A B C D E F G H I J K L M N O P Q R S T U V W X Y Z # 

Suds In The Bucket Tabs

(ver. 1) Click to play this song!
Sara Evans
 Rating:
4/5 (4 votes)
                Solo for Suds in the Bucket...should be right..ill add a 
Soundbyte for this soon

lol...in the soundbyte, i ended up recording 3 times..
So there is a normal speed, slow speed, and a slower speed..






e-----------------------------------------------------------------
B-----------------------------------------------------------------
G-----------------------------------------------------------------
D------------3-----3---5-5-3---5-3--------------------------------
A--5\3-1--3h5--x3h5--3-------5-----5\-x-3h5-5-5-5\3-1-3-1---------
E-----------------------------------------------------------------

e---------------------------------------------------------------------
B---------------------------------------------------------------------
G------3p0---3p0---------3p0--bh5-5-5r-3------------------------------
D-0h3h5---3h5---0h3h5-3h5----------------5bh-5-5r-3-------------------
A---------------------------------------------------5\4-3-1-----------
E---------------------------------------------------------------------
            
Submit corrections

↑ Back to top | Tablatures and chords for acoustic guitar and electric guitar, ukulele, drums are parodies/interpretations of the original songs. You may use it for private study, scholarship, research or language learning purposes only