» » »

Sam Smith - Too Good At Goodbyes Tabs

Artists:  A B C D E F G H I J K L M N O P Q R S T U V W X Y Z # 

Too Good At Goodbyes Tabs

(ver. 1) Click to play this song!
Sam Smith
 Rating:
4.2/5 (30 votes)

 Too Good At Goodbyes lessons Tabs too difficult? Try these video lessons and learn fast
 
                
[Verse]
D|---------------------------0--------------------------------------|
A|---0-0-0-0-0h2p0-----------0--------------------------------------|
G|---------------------------3--------------------------------------|
D|-4-----------------2p0-----2-2-2-4-5-4-2-0--0--3/4-3/4------------|
A|-2-------------------------0--------------------------------------|
D|-----------------0--------------------------2---------------------|

D|------------------------------0------------------------------|
A|---0-0-0-0-0h2p0---0----------0------------------------------|
G|------------------------------3------------------------------|
D|-4--------------------2p0-----2-2-2-4-5-4-2-0--0-------------|
A|-2----------------------------0------------------------------|
D|-----------------0-----------------------------2-------------|

[Refrain]
D|------------------------------------------------------------------------|
A|-0-0-0-0-0--0-0---------0-0-0-0-0--0-0----------------------------------|
G|-----------------0-0-------------------0-0------------------------------|
D|--------------------------------------------2-2-2-4-5-4-2-0--0-3/4-3/4--|
A|-2------------------------------------------0---------------------------|
D|------------------------0------------------------------------2----------|

D|----------------------------------------------------------------------|
A|-0-0-0-0-0--0-0--------0-0-0-0-0--2p0---------------------------------|
G|-----------------0-0------------------0-0-----------------------------|
D|-------------------------------------------2-2-2-4-5-4-2-0---0--------|
A|-2-----------------------------------------0--------------------------|
D|-----------------------0-------------------------------------2--------|

[Chorus]
D|-0-0-2-0-2-----------2p0h2/4-4---0-0-0-2/4-0--2-2-0--5-4-2/4\2p0----------|
A|------------------------------------------0-------------------0h2---------|
G|------------------------------------------3-------------------------------|
D|----------------------------------------------2------5-4-2/4\2p0----------|
A|------------2---------------------------------0---------------------------|
D|-------------------------------0----------------------------------2-------|

D|-0-0-0-0-------------2p0h2/4-4---0-0-0-2/4-0--2-0-5-4-2-0---------------0h2-0----|
A|------------------------------------------0-------------0-0-0-0-0h2--------------|
G|------------------------------------------3--------------------------------------|
D|----------------------------------------------2---5-4-2-0------------------------|
A|--------------2-------------------------------0----------------------------------|
D|-------------------------------0--------------------------2----------------------|

D|---------------------------------9---------------------0h2--------------|
A|-------------------0-0-0-0-0h2-----2/4----------------------------------|
G|------------------------------------------------------------------------|
D|------------------------------------------------------------------------|
A|------------------------------------------------------------------------|
D|-9---------------------------------------0------------------------------|

D|-2-2-2-2p0--5-4------|
A|---------------------|
G|---------------------|
D|---------------------|
A|-0-------------------|
D|-----------------2---|

[Verse]
D|------------------------------0------------------------------|
A|---0-0-0-0-0h2p0---0----------0------------------------------|
G|------------------------------3------------------------------|
D|-4--------------------2p0-----2-2-2-4-5-4-2-0--0--3/4-3/4----|
A|-2----------------------------0------------------------------|
D|-----------------0-----------------------------2-------------|

D|---------------------------------------------------------|
A|---0-0-0-5-4-2p0--2p0------------------------------------|
G|-----------------------------3---------------------------|
D|-4---------------------2p0---2-2-2-4-5-4-2-0--0----------|
A|-2---------------------------0---------------------------|
D|------------------0---------------------------2----------|

[Refrain]
D|------------------------------------------------------------------------|
A|-0-0-0-0-0--0-0---------0-0-0-0-0--0-0----------------------------------|
G|-----------------0-0-------------------0-0------------------------------|
D|--------------------------------------------2-2-2-4-5-4-2-0--0-3/4-3/4--|
A|-2------------------------------------------0---------------------------|
D|------------------------0------------------------------------2----------|

D|----------------------------------------------------------------------|
A|-0-0-0-0-0--0-0--------0-0-0-0-0--2p0---------------------------------|
G|-----------------0-0------------------0-0-----------------------------|
D|-------------------------------------------2-2-2-4-5-4-2-0---0--------|
A|-2-----------------------------------------0--------------------------|
D|-----------------------0-------------------------------------2--------|

[Chorus]
D|-0-0-2-0-2-----------2p0h2/4-4---0-0-0-2/4-0--2-2-0--5-4-2/4\2p0----------|
A|------------------------------------------0-------------------0h2---------|
G|------------------------------------------3-------------------------------|
D|----------------------------------------------2------5-4-2/4\2p0----------|
A|------------2---------------------------------0---------------------------|
D|-------------------------------0----------------------------------2-------|

D|-0-0-0-0-------------2p0h2/4-4---0-0-0-2/4-0--2-0-5-4-2-0---------------0h2-0----|
A|------------------------------------------0-------------0-0-0-0-0h2--------------|
G|------------------------------------------3--------------------------------------|
D|----------------------------------------------2---5-4-2-0------------------------|
A|--------------2-------------------------------0----------------------------------|
D|-------------------------------0--------------------------2----------------------|

D|---------------------------------9---------------------0h2--------------|
A|-------------------0-0-0-0-0h2-----2/4----------------------------------|
G|------------------------------------------------------------------------|
D|------------------------------------------------------------------------|
A|------------------------------------------------------------------------|
D|-9---------------------------------------0------------------------------|

D|-2-2-2-2p0--5-4--------------0h2p0----------|
A|-------------------0-0-0-0-2----------------|
G|--------------------------------------------|
D|--------------------------------------------|
A|-0------------------------------------------|
D|-----------------2--------------------------|

D|---------------------------------9---------------------0h2--------------|
A|-------------------0-0-0-0-0h2-----2/4----------------------------------|
G|------------------------------------------------------------------------|
D|------------------------------------------------------------------------|
A|------------------------------------------------------------------------|
D|-9---------------------------------------0------------------------------|

D|-2-2-2-2p0--5-4------|
A|---------------------|
G|---------------------|
D|---------------------|
A|-0-------------------|
D|-----------------2---|

[Bridge]
D|---------------------------------9---------------------------------|
A|-------------------------------------------------------------------|
G|-------------------------------------------------------------------|
D|---------------------------------------------(12)-(12)-(12)--------|
A|---------------------------------------------(12)-(12)-(12)--------|
D|-9---------------------------------------0---(12)-(12)-(12)--------|

D|-2-2-2-2p0--5-4--------------------------------|
A|-----------------------------------------------|
G|-----------------------------------------------|
D|----------------------(12)-(12)-(12)-----------|
A|-0--------------------(12)-(12)-(12)-----------|
D|-----------------2----(12)-(12)-(12)-----------|

D|---------------------------------9----------9-7-4p2p0h2h4-------|
A|----------------------------------------------------------------|
G|----------------------------------------------------------------|
D|----------------------------------------------------------------|
A|----------------------------------------------------------------|
D|-9---------------------------------------0----------------------|

D|-2-2-2-2p0--5-4--------------------|
A|-----------------------------------|
G|-----------------------------------|
D|-----------------------------------|
A|-0---------------------------------|
D|-----------------2-----------------|

[Chorus]
D|-0-0-2-0-2-----------2p0h2/4-4---0-0-0-2/4-0--2-2-0--5-4-2/4\2p0----------|
A|------------------------------------------0-------------------0h2---------|
G|------------------------------------------3-------------------------------|
D|----------------------------------------------2------5-4-2/4\2p0----------|
A|------------2---------------------------------0---------------------------|
D|-------------------------------0----------------------------------2-------|

D|-0-0-0-0-------------2p0h2/4-4---0-0-0-2/4-0--2-0-5-4-2-0---------------0h2-0----|
A|------------------------------------------0-------------0-0-0-0-0h2--------------|
G|------------------------------------------3--------------------------------------|
D|----------------------------------------------2---5-4-2-0------------------------|
A|--------------2-------------------------------0----------------------------------|
D|-------------------------------0--------------------------2----------------------|            
Submit corrections


        Too Good At Goodbyes lessons Hard to play? Try these video lessons and learn fast Too Good At Goodbyes lessons
        
↑ Back to top | Tablatures and chords for acoustic guitar and electric guitar, ukulele, drums are parodies/interpretations of the original songs. You may use it for private study, scholarship, research or language learning purposes only