» » »

Sam Smith - One Day At A Time Tabs

Artists:  A B C D E F G H I J K L M N O P Q R S T U V W X Y Z # 

One Day At A Time Tabs

(ver. 1) Click to play this song!
Sam Smith
 Rating:
4.2/5 (30 votes)

 One Day At A Time lessons Tabs too difficult? Try these video lessons and learn fast
 
                [Intro]
e|--------------1---------1--------------------------------------------------|
B|------------------1-1/3---1--1-----------1-----------------------------1---|
G|-----0-0h2-2----2---------0----0-----0h2---0h2p0----0-0h2-2p0-------0---0--|
D|-0h2---------3------------2------0h2--------------3-----------0-0h2---2----|
A|--------------------------3------------------------------------------------|
E|---------------------------------------------------------------------------|

[Verse]
e|--------------1---------1--------------------------------------------------|
B|------------------1-1/3---1--1-----------1-----------------------------1---|
G|-----0-0h2-2----2---------0----0-----0h2---0h2p0----0-0h2-2p0-------0---0--|
D|-0h2---------3------------2------0h2--------------3-----------0-0h2---2----|
A|--------------------------3------------------------------------------------|
E|---------------------------------------------------------------------------|

e|--------------1-------------0-----0----------------------------------3-----|
B|------------------1-1/3---1-1--1-----------1------------------1--1-----1---|
G|-----0-0h2-2----2-------0---0----0-----0h2---0h2p0---0h2-2p0--0----0-------|
D|-0h2---------3---------------------0h2-------------3-----------------------|
A|--------------------------------------------------------------3------------|
E|---------------------------------------------------------------------------|

[Chorus]
e|--------------1---------1---------------------------------------------3-----|
B|------------------1-1/3---1--1-----------1---------------------1--1-----1---|
G|-----0-0h2-2----2---------0----0-----0h2---0h2p0----0-0h2-2p0--0----0-------|
D|-0h2---------3------------2------0h2--------------3-------------------------|
A|--------------------------3------------------------------------3------------|
E|----------------------------------------------------------------------------|

e|--------------1---------0-0------------0---3--------------------------------|
B|------------------1-1/3---1--------------1---1------------------------------|
G|-----0-0h2-2----2---------2--------------1----------------------------------|
D|-0h2---------3------------3------0h2-3---3----------------------------------|
A|-----------------------------2-3--------------------------------------------|
E|----------------------------------------------------------------------------|

e|--------------1---------1---------------------------------------------------|
B|------------------1-1/3---1--1-----------1-----------------------------1----|
G|-----0-0h2-2----2---------0----0-----0h2---0h2p0----0-0h2-2p0-------0---0---|
D|-0h2---------3------------2------0h2--------------3-----------0-0h2---2-----|
A|--------------------------3-------------------------------------------------|
E|----------------------------------------------------------------------------|

[Verse 2]
e|--------------1---------1---------------------------------------------------|
B|------------------1-1/3---1--1-----------1-----------------------------1----|
G|-----0-0h2-2----2---------0----0-----0h2---0h2p0----0-0h2-2p0-------0---0---|
D|-0h2---------3------------2------0h2--------------3-----------0-0h2---2-----|
A|--------------------------3-------------------------------------------------|
E|----------------------------------------------------------------------------|

e|--------------1-------------0-----0----------------------------------3------|
B|------------------1-1/3---1-1--1-----------1------------------1--1-----1----|
G|-----0-0h2-2----2-------0---0----0-----0h2---0h2p0---0h2-2p0--0----0--------|
D|-0h2---------3---------------------0h2-------------3------------------------|
A|--------------------------------------------------------------3-------------|
E|----------------------------------------------------------------------------|

[Chorus]
e|--------------1---------1---------------------------------------------3-----|
B|------------------1-1/3---1--1-----------1---------------------1--1-----1---|
G|-----0-0h2-2----2---------0----0-----0h2---0h2p0----0-0h2-2p0--0----0-------|
D|-0h2---------3------------2------0h2--------------3-------------------------|
A|--------------------------3------------------------------------3------------|
E|----------------------------------------------------------------------------|

e|--------------1---------0-0------------0---3--------------------------------|
B|------------------1-1/3---1--------------1---1------------------------------|
G|-----0-0h2-2----2---------2--------------1----------------------------------|
D|-0h2---------3------------3------0h2-3---3----------------------------------|
A|-----------------------------2-3--------------------------------------------|
E|----------------------------------------------------------------------------|

e|--------------1---------1---------------------------------------------------|
B|------------------1-1/3---1--1-----------1-----------------------------1----|
G|-----0-0h2-2----2---------0----0-----0h2---0h2p0----0-0h2-2p0-------0---0---|
D|-0h2---------3------------2------0h2--------------3-----------0-0h2---2-----|
A|--------------------------3-------------------------------------------------|
E|----------------------------------------------------------------------------|

[outro] 2:37-end
e|--------------1---------1---------------------------------------------3-----|
B|------------------1-1/3---1--1-----------1---------------------1--1-----1---|
G|-----0-0h2-2----2---------0----0-----0h2---0h2p0----0-0h2-2p0--0----0-------|
D|-0h2---------3------------2------0h2--------------3-------------------------|
A|--------------------------3------------------------------------3------------|
E|----------------------------------------------------------------------------|

e|--------------1---------1---------------------------------------------3-----|
B|------------------1-1/3---1--1-----------1---------------------1--1-----1---|
G|-----0-0h2-2----2---------0----0-----0h2---0h2p0----0-0h2-2p0--0----0-------|
D|-0h2---------3------------2------0h2--------------3-------------------------|
A|--------------------------3------------------------------------3------------|
E|----------------------------------------------------------------------------|

e|--------------1---------0-0------------0---3---------3----------3---1-----8-|
B|------------------1-1/3---1--------------1---1-----1---1-----1----1---1-1---|
G|-----0-0h2-2----2---------2--------------1-----0h2-1-----0h2-1----------0---|
D|-0h2---------3------------3------0h2-3---3---------3---------3----------2---|
A|-----------------------------2-3----------------------------------------3---|
E|----------------------------------------------------------------------------|            
Submit corrections


        One Day At A Time lessons Hard to play? Try these video lessons and learn fast One Day At A Time lessons
        
↑ Back to top | Tablatures and chords for acoustic guitar and electric guitar, ukulele, drums are parodies/interpretations of the original songs. You may use it for private study, scholarship, research or language learning purposes only