Home » R » Russian Red »

Russian Red - Timing Is Crucial Tabs

Artists:  A B C D E F G H I J K L M N O P Q R S T U V W X Y Z # 

Timing Is Crucial Tabs

(ver. 2) Click to play this song!
Russian Red
Russian Red. Timing is crucial, from I love your glasses(2008, Eureka)   

RIFF A IN C MAYOR. Tocar con la canción
   E------------------------------------------|--------------|
   B---------------0p1----0p1h0-------0p1h0---|--------------|
   G----0--0--0--0-------2-----2----2------2--|----- etc ----|
   D---0--2--0--2-------2-------2--2--------2-|--------------|
   A--3--3--3--3------0-----------0-----------|--------------|
   E------------------------------------------|--------------|
 
Aparte de la melodía del principio,
se podría tabular el resto de la canción,
pero lo cierto es que lo que toca son arpegios
supersencillos basados en los acordes que pongo abajo.
Así que con oírlo se puede sacar,
y si no pues os inventáis el arpegio y os saldrá bonito igual!
Bueno, todo es igual, salvo el final de la canción
que hace un giro con tres acordes,
y el en medio no me acuerdo como era así que lo tabulé para que sea más sencillo verlo.
Es un giro que Russian suele usar bastante. 
Chao y suerte con la canción!

C                                 Am
I'm falling, I'm falling on the bed
C                         Am
that I got ready in my head.
C                                                  Am
How many times been to places, and places came to me?
C                           Am            
Now by the corner of my eye I'm checking the mirrors upside down
F             G                                       C  F
And I thought, that timing is crucial in the next step. Timing is 
G       C
crucial.
A   F G                   C    A  F          G          C
Don't believe the lies I said, I was just forcing myself
F                     G             C   Am   F              G                                    
'cause timing was crucial in the next step, timing is crucial.

Lo mismo...

Now by the corner of my eye I'm checking the mirrors upside
but they don't seem to give reflections of what there is behind.
Timing is crucial.


Don't believe the lies I said, I was just forcing myself
'cause timing was crucial in the next step, timing is crucial.
Don't forget the lies I said, I was just trying to help ourselves
'cause timing had been crucial from the very first step.
Timing is crucial

Here in “from the very first step” there’s a little change, something like this
         E--------- ------ -------------------------------------|
         B--------- ------ ----0p1h0----------------------------|
         G-------0- ----0- ---2------2-------2---------------0--|THEN
         D-----2--- --0--- --2--------2----3---3---3-------0----|RIFF 
         A---3----- 2----- 0--------------3------3-------2------|”A”
         E--------- ------ -------------1------------3~---------|AGAIN
...from the very   first   step...
            
Submit corrections

↑ Back to top | Tablatures and chords for acoustic guitar and electric guitar, ukulele, drums are parodies/interpretations of the original songs. You may use it for private study, scholarship, research or language learning purposes only