Home » R » Russian Red »

Russian Red - Timing Is Crucial Tabs

Artists:  A B C D E F G H I J K L M N O P Q R S T U V W X Y Z # 

Timing Is Crucial Tabs

(ver. 1) Click to play this song!
Russian Red
 Rating:
4/5 (4 votes)
                Capo 2

e------------------------------------------------------------|5x
B-----------------------------------0h1----0h1p0------oh1p0--|
G-------0--------0--------0--------0------2------2---2-------|
D----2--------0--------2--------0--------2--------2-2--------|
A-3--------3--------3--------3---------0-----------0---------|
E------------------------------------------------------------|

e------------------------------------------------------------|
B-----------------------------------0h1----0h1p0---0-h-1-----|
G-------0--------0--------0--------0------2-------2----------|
D----2--------0--------2--------0--------2-------2-----------|
A-3--------3--------3--------3---------0---------------------|
E------------------------------------------------------------|

e----------------------------------------------------|2x
B-------1------------3--------------0h1p0-----0h1p0--|
G----2-----2-2----0-----0-0--------0-----0---0-------|
D-3---------3------------0------2---------2-2--------|
A----------------------------3-------------3---------|
E--------------3-------------------------------------|

e--------------------------------------|2x
B-3--3--3--1--1--1---3----------0h1p0--|
G-3-3--3---2-2--2----0---------0-------|
D----------3---3-------0----2----------|
A-0---0------------------3-------------|
E------------------3-3-----------------|

e----------------------------------------------------|
B-------1------------3--------------0h1p0-----0h1p0--|
G----2-----2-2----0-----0-0--------0-----0---0-------|
D-3---------3------------0------2---------2-2--------|
A----------------------------3-------------3---------|
E--------------3-------------------------------------|

e---------------------------|
B-------1------------3------|
G----2-----2-2----0-----0-0-|
D-3---------3------------0--|
A---------------------------|
E--------------3------------|

e------------------------------------------------------------|
B-----------------------------------0h1----0h1p0------0h1p0--|
G-------0--------0--------0--------0------2------2---2-------|
D----2--------0--------2--------0--------2--------2-2--------|
A-3--------3--------3--------3---------0-----------0---------|
E------------------------------------------------------------|

e------------------------------------------------------------|2x
B-----------------------------------0h1----0h1p0---0-h-1-----|
G-------0--------0--------0--------0------2-------2----------|
D----2--------0--------2--------0--------2-------2-----------|
A-3--------3--------3--------3---------0---------------------|
E------------------------------------------------------------|

e----------------------------------------------------|2x
B-------1------------3--------------0h1p0-----0h1p0--|
G----2-----2-2----0-----0-0--------0-----0---0-------|
D-3---------3------------0------2---------2-2--------|
A----------------------------3-------------3---------|
E--------------3-------------------------------------|

e--------------------------------------|2x
B-3--3--3--1--1--1---3----------0h1p0--|
G-3-3--3---2-2--2----0---------0-------|
D----------3---3-------0----2----------|
A-0---0------------------3-------------|
E------------------3-3-----------------|

e----------------------------------------------------|
B-------1------------3--------------0h1p0-----0h1p0--|
G----2-----2-2----0-----0-0--------0-----0---0-------|
D-3---------3------------0------2---------2-2--------|
A----------------------------3-------------3---------|
E--------------3-------------------------------------|

e---------------------------|
B-------1------------3------|
G----2-----2-2----0-----0-0-|
D-3---------3------------0--|
A---------------------------|
E--------------3------------|

e--------------------------------------|2x
B-3--3--3--1--1--1---3----------0h1p0--|
G-3-3--3---2-2--2----0---------0-------|
D----------3---3-------0----2----------|
A-0---0------------------3-------------|
E------------------3-3-----------------|

e-------------------------------------------------|
B-------1------------3--------1---0---------0h1p0-|
G----2-----2-2----0-----0-0---0---0--------0------|
D-3---------3------------0--------------2---------|
A---------------------------3---2----3------------|
E--------------3----------------------------------|

e---------------------------|
B-------1------------3------|
G----2-----2-2----0-----0-0-|
D-3---------3------------0--|
A---------------------------|
E--------------3------------|

e------------------------------------------------------------0-|
B-----------------------------------0h1----0h1p0------0h1p0--1-|
G-------0--------0--------0--------0------2------2---2-------0-|
D----2--------0--------2--------0--------2--------2-2--------2-|
A-3--------3--------3--------3---------0-----------0---------3-|
E------------------------------------------------------------0-|
            
Submit corrections

↑ Back to top | Tablatures and chords for acoustic guitar and electric guitar, ukulele, drums are parodies/interpretations of the original songs. You may use it for private study, scholarship, research or language learning purposes only