» » »

Russian Red - Cigarettes Tabs

Artists:  A B C D E F G H I J K L M N O P Q R S T U V W X Y Z # 

Cigarettes Tabs

(ver. 1) Click to play this song!
Russian Red
 Rating:
3.6/5 (5 votes)

 Cigarettes lessons Tabs too difficult? Try these video lessons and learn fast
 
                CAPO ON 6TH FREET.

|---------------------|---------------------|------------------------|
|---------------------|---------------------|------------------------|
|-------------------0-|-------------------0-|------------------0-----|
|----0---0---0---0----|----0---0---0---0----|---2---2---2---0--------|
|---------------------|---------------------|-3---3---3---3----------|
|--3---3---3---3------|--2---2---2---2------|------------------------|

-------------------------|
-------------------------|
-----------0-----------0-|
----2----0------0---0----|
--2---2-------0---0------|
-------------------------|

Now tell me what it is, it isnt fair
cause Im wasting time, but it isnt my heart
it isnt my fault.
And every situation understands, well
The anecdote of chasing the location to your door,
Yeah yeah? da da?

cause Im wasting time, now Im wasting money again
and all the cigarettes that I have never smoked.
And all the letters that I have never sent, da da?

And he was sitting by the swimming pool
But he was scared, cause it wasnt his time, it wasnt his chance.
Getting olders not been on my plans
But its never late, its never late enough for me to stay, da da?

cause Im wasting time, now Im wasting money again
and all the cigarettes that I have never smoked.
And all the letters that I have never sent, da da?
            
Submit corrections


        Cigarettes lessons Hard to play? Try these video lessons and learn fast Cigarettes lessons
        
↑ Back to top | Tablatures and chords for acoustic guitar and electric guitar, ukulele, drums are parodies/interpretations of the original songs. You may use it for private study, scholarship, research or language learning purposes only