Home » R » Rory Gallagher »

Rory Gallagher - Shadow Play Tabs

Artists:  A B C D E F G H I J K L M N O P Q R S T U V W X Y Z # 

Shadow Play Tabs

(ver. 3) Click to play this song!
Rory Gallagher
Gtr I (E A D G B E) - 'Rory Gallagher - Electric Guitar'
Gtr II (E A D G B E) - 'Rory gallagher - Electric Guitar'
Gtr III (E A D G B E) - 'Rory Gallagher - Electric Guitar'


 Intro
  Q=160
  D5                Bb5           C5
 4/4
  Gtr I
  E E E E E E E E   E E E E E E E E
|-----------------|-----------------|
|-----------------|-----------------|
|-2-2-2-2-2-2-----|-----------------|
|-0-0-0-0-0-0-----|-3-3-3-3-3-3-3S5-|
|-------------3-0-|-1-1-1-1-1-1-1S3-|
|-----------------|-----------------|
|
| Gtr II
| W                 W
|-----------------|-----------------|
|-----------------|-----------------|
|-----------------|-----------------|
|-----------------|-----------------|
|-----------------|-----------------|
|-----------------|-----------------|
|
| Gtr III
| W                 W
|-----------------|-----------------|
|-----------------|-----------------|
|-----------------|-----------------|
|-----------------|-----------------|
|-----------------|-----------------|
|-----------------|-----------------|


  E E E E E E a E E   a E E a E E E E a E E
|-------------------|-------------------------|
|-------------------|-------------------------|
|-------------------|-------------------------|
|-5-5-5-5-5-5-4s5-5-|-4s5-5-4s5-5-5-5-4s5-5---|
|-3-3-3-3-3-3-2s3-3-|-2s3-3-2s3-3-3-3-2s3-3---|
|-------------------|-------------------------|
|
| W                     H         Q     E S S
|-------------------|-------------------------|
|-------------------|---------------------3-3-|
|-------------------|---------------------2-2-|
|-------------------|---------------------0-0-|
|-------------------|-------------------------|
|-------------------|-------------------------|
|
| W                     H         Q     E S S
|-------------------|-------------------------|
|-------------------|-------------------------|
|-------------------|-------------------------|
|-------------------|-------------------------|
|-------------------|---------------------5-5-|
|-------------------|-------------------------|


  D5                  Bb5             C5
   E  E E E E E E E    E  E E E E E E E
|-------------------|-------------------|
|-------------------|-------------------|
|--2--2-2-2-2-2-----|-------------------|
|--0--0-0-0-0-0-----|--3--3-3-3-3-3-3S5-|
|---------------3-0-|--1--1-1-1-1-1-1S3-|
|-------------------|-------------------|
|
|  W                   W
|-------------------|-------------------|
|--3----------------|-------------------|
|--2----------------|-------------------|
|--0----------------|-------------------|
|-------------------|-------------------|
|-------------------|-------------------|
|
| +W                  +W
|-------------------|-------------------|
|-------------------|-------------------|
|-------------------|-------------------|
|-------------------|-------------------|
|-(5)---------------|-(5)---------------|
|-------------------|-------------------|


   E  E E E E E a E E    E  E E E E E E E
|---------------------|-------------------||
|---------------------|-------------------||
|---------------------|-------------------||
|--5--5-5-5-5-5-4s5-5-|--5--5-5-5-5-5-5-0-||
|--3--3-3-3-3-3-2s3-3-|--3--3-3-3-3-3-3-0-||
|---------------------|-------------------||
|
|  W                     W
|---------------------|-------------------||
|---------------------|-------------------||
|---------------------|-------------------||
|---------------------|-------------------||
|---------------------|-------------------||
|---------------------|-------------------||
|
| +W                    +W
|---------------------|-------------------||
|---------------------|-------------------||
|---------------------|-------------------||
|---------------------|-------------------||
|-(5)-----------------|-(5)---------------||
|---------------------|-------------------||


   1st & 2nd Verses
    D5                Bb5           C5
    E E E E E E E E   E E E E E E E E   E E E E E E E  E
||------------------|-----------------|---------------------|
||o-----------------|-----------------|---------------------|
||--2-2-2-2-2-2-----|-----------------|-----5-5-5-5-5--5----|
||--0-0-0-0-0-0-----|-3-3-3-3-3-3-3S5-|-5-5-5-5-5-5-5--5----|
||o-------------3-0-|-1-1-1-1-1-1-1S3-|-3-3-3-3-3-3-3--3----|
||------------------|-----------------|---------------------|
|
|   Gtr II
|   W                 W                 H       Q   E  E
||------------------|-----------------|---------------------|
||o-----------------|-----------------|---------------------|
||------------------|-----------------|---------------12b13-|
||------------------|-----------------|---------------------|
||o-----------------|-----------------|---------------------|
||------------------|-----------------|---------------------|


  a E  E   E      E  E     E  E      E
|--------------------------------------|
|--------------------------------------|
|-4s5--5---5------5--5-----5--5--------|
|-4s5--5---5------5--5-----5--5------0-|
|-2s3--3---3------3--3-----3--3------0-|
|--------------------------------------|
|
|   E  E   E      E  E     E  E      E
|--------------------------------------|
|--------------------------------------|
|-----12-[12]b13-12-12b13-12-12pb13r12-|
|--------------------------------------|
|--------------------------------------|
|--------------------------------------|


  D5                 Bb5               C5
   E E E E E E E E   E E E E E E E E   Q  E E E E  E  E
|------------------|-----------------|------------------|
|------------------|-----------------|--------5-5--5--5-|
|--2-2-2-2-2-2-----|-----------------|-5--5-5-5-5--5--5-|
|--0-0-0-0-0-0-----|-3-3-3-3-3-3-3S5-|-5--5-5-5-5--5--5-|
|--------------3-0-|-1-1-1-1-1-1-1S3-|-3--3-3-3-3--3--3-|
|------------------|-----------------|------------------|
|
|  ~~
|  W                 W                 H      Q    E  E
|------------------|-----------------|------------------|
|------------------|-----------------|---------------13-|
|-14---------------|-----------------|------------14----|
|------------------|-----------------|------------------|
|------------------|-----------------|------------------|
|------------------|-----------------|------------------|


  a  E    E     E    E     E    E      E  E
|---------------------------------------------|
|---------------------------------------------|
|-4s=5----5-----5----5-----5----5------5------|
|-4s=5----5-----5----5-----5----5------5--0---|
|-2s=3----3-----3----3-----3----3------3--0---|
|---------------------------------------------|
|
|                                  ~~~~~~~
|    |---3---|  |---3---|  |---3---|
|    E  E    E  E  E    E  E  E    E  +Q
|---------------------------------------------|
|---15h17p==15-13------13-15------15-(15)-----|
|-----------------14---------12---------------|
|---------------------------------------------|
|---------------------------------------------|
|---------------------------------------------|


  A                   Bb
   E  E E E E E E E    E  E E E E E E E
|-------------------|-------------------|
|-(2)---------------|-(3)---------------|
|--2--2-2-2-2-2-2-2-|--3--3-3-3-3-3-3-3-|
|--2--2-2-2-2-2-2-2-|--3--3-3-3-3-3-3-3-|
|--0--0-0-0-0-0-0-0-|--1--1-1-1-1-1-1-1-|
|-------------------|-------------------|
|
|  W                   W
|-------------------|-------------------|
|-------------------|-------------------|
|-------------------|-------------------|
|-------------------|-------------------|
|-------------------|-------------------|
|-------------------|-------------------|


  C5
   E  E E E E E E E    E  E E E E E E E
|-------------------|-------------------||
|-------------------|-------------------||
|--5--5-5-5-5-5-5-5-|--5--5-5-5-5-5-5---||
|--5--5-5-5-5-5-5-5-|--5--5-5-5-5-5-5-0-||
|--3--3-3-3-3-3-3-3-|--3--3-3-3-3-3-3-0-||
|-------------------|-------------------||
|
|           ~~~~~~~~~~~~~~
|  Q.     E H         +H        H
|-------------------|-------------------||
|-------------------|-------------------||
|-10------7-9-------|-(9)---------------||
|-------------------|-------------------||
|-------------------|-------------------||
|-------------------|-------------------||


 Chorus
  Dm                              Bb5
  E E E E  E      E   E  E          Q    E E E E E E
|-1-1-1-1--1------1-------------|--------------------|
|-3-3-3-3--3------3-------------|--------------------|
|-2-2-2-2--2------2-------------|---3----3-3-3-3-3---|
|-0-0-0-0--0------0-------------|---3----3-3-3-3-3-0-|
|---------------------3--0------|---1----1-1-1-1-1-0-|
|-------------------------------|--------------------|
|
|                                   ~~~~~
| H        E     +E   E  E         +H.           Q
|-------------------------------|--------------------|
|--------------------13---------|--------------------|
|---------12b14-(12)----12pb14==|=(12)r--------------|
|-------------------------------|--------------------|
|-------------------------------|--------------------|
|-------------------------------|--------------------|


 1.
  C5
  E E  E      E   E  E      E   E    E       E  E E   E  E E E
|---------------------------------|-----------------------------||
|---------------------------------|----------------------------o||
|-5-5--5------5---5--5------5---5-|--5-------5--5-5---5--5-5----||
|-5-5--5------5---5--5------5---5-|--5-------5--5-5---5--5-5-0--||
|-3-3--3------3---3--3------3---3-|--3-------3--3-3---3--3-3-0-o||
|---------------------------------|-----------------------------||
|
|                                            ~~~~~~~~~~~~
| Q    E     +E   E  E     +E   E    E      +Q.      +H
|---------------------------------|-----------------------------||
|----------------13------------13-|----------------------------o||
|-----12b14-(12)----12b14-(12)----|-12pb14r(12)-----(12)--------||
|---------------------------------|-----------------------------||
|---------------------------------|----------------------------o||
|---------------------------------|-----------------------------||


  2.
  C5
  E E E  E    E  E    E  E        E  E E E E E E E
|-----------------------------|--------------------|
|-----------------------------|--------------------|
|-5-5-5--5----5--5----5--5----|---5--5-5-5-5-5-5---|
|-5-5-5--5----5--5----5--5----|---5--5-5-5-5-5-5-0-|
|-3-3-3--3----3--3----3--3----|---3--3-3-3-3-3-3-0-|
|-----------------------------|--------------------|
|
|                                 ~~~~
| Q   E  E    E  E    E  E       +W
|-----------------------------|--------------------|
|-----------------------------|--------------------|
|-------12b14---12b14---12b14r|=(12)---------------|
|-----------------------------|--------------------|
|-----------------------------|--------------------|
|-----------------------------|--------------------|


  Dm
  Q   E      E   E  E      E   E
|-1---1------1---1--1------------|
|-3---3------3---3--3------------|
|-2---2------2---2--2------------|
|-0---0------0---0--0------------|
|--------------------------3---0-|
|--------------------------------|
|
| Q   E     +E   E  E     +E   E
|--------------------------------|
|---------------13------------13-|
|----12b14-(12)----12b14-(12)----|
|--------------------------------|
|--------------------------------|
|--------------------------------|


  Bb5                  C5
   Q     E E E E E E   E E  E    E E  E    E  E        E  E E E   E   E E E
|--------------------|-----------------------------|------------------------||
|--------------------|-----------------------------|------------------------||
|--3-----3-3-3-3-3---|-5-5--5----5-5--5----5--5----|---5--5-5-5---5---5-5---||
|--3-----3-3-3-3-3-0-|-5-5--5----5-5--5----5--5----|---5--5-5-5---5---5-5-3-||
|--1-----1-1-1-1-1-0-|-3-3--3----3-3--3----3--3----|---3--3-3-3---3---3-3---||
|--------------------|-----------------------------|------------------------||
|
|  ~~~~~                                               ~~~~
|  W                   Q    Q      E  E    E  E       +H         +H
|--------------------|-----------------------------|------------------------||
|--------------------|-----------------------------|------------------------||
|-12b14--------------|-----12b14-----12b14---12b14r|=(12)-------(12)\-------||
|--------------------|-----------------------------|------------------------||
|--------------------|-----------------------------|------------------------||
|--------------------|-----------------------------|------------------------||


 Bridge
  $
  F5                        C5
                      PM|
  W          +H.      E E   W          +W
|----------|--------------|----------|--------|
|----------|--------------|----------|--------|
|----------|--------------|-5--------|-(5)----|
|-3--------|-(3)----------|-5--------|-(5)----|
|-3--------|-(3)----------|-3--------|-(3)----|
|-1--------|-(1)------1-0-|----------|--------|


  F5                          C
    W           +H.      Q    W          +H.      Q
|-------------|-------------|----------|-------------|
|-^-1---------|-(1)---------|-5--------|-(5)---------|
|-------------|-------------|-5--------|-(5)---------|
|-^-3---------|-(3)---------|-5--------|-(5)---------|
|-^-3---------|-(3)---------|-3--------|-(3)---------|
|-^(1)--------|-(1)---------|----------|-------------|


  Bb                       Am
   W          +W            W          +W
|-----------|------------|-----------|--------|
|-^3--------|-(3)--------|-^1--------|-(1)----|
|-^3--------|-(3)--------|-^2--------|-(2)----|
|-^3--------|-(3)--------|-^2--------|-(2)----|
|-^1--------|-(1)--------|-^0--------|-(0)----|
|-----------|------------|-----------|--------|


  C5                D5
  Gtr I
  E E E E E E E E    E E E E E E E E
|-----------------|------------------|
|-----------------|------------------|
|-----------------|------------------|
|-5-5-5-5-5-5-5-5-|--7-7-7-7-7-7-7-7-|
|-3-3-3-3-3-3-3-3-|--5-5-5-5-5-5-5-5-|
|-----------------|------------------|
|
| Gtr II
| E E E E E E E E    E E E E E E E E
|-----------------|------------------|
|-----------------|------------------|
|-5-5-5-5-5-5-5-5-|-/7-7-7-7-7-7-7-7S|
|-----------------|------------------|
|-3-3-3-3-3-3-3-3-|-/5-5-5-5-5-5-5-5S|
|-----------------|------------------|


                                 To Coda
  E5                 G5
  E E E E E E E  E    E  E  E  E  Q   Q
|------------------|------------------------||
|------------------|------------------------||
|------------------|------------------------||
|-9-9-9-9-9-9-9--9-|-12-12-12-12-12--12-----||
|-7-7-7-7-7-7-7--7-|-10-10-10-10-10--10-----||
|------------------|------------------------||
|
| E E E E E E E  E    E  E  E  E  Q   E   E
|------------------|---------------------10-||
|------------------|------------------------||
|-9-9-9-9-9-9-9s12-|-12-12-12-12-12---7-----||
|------------------|------------------------||
|-7-7-7-7-7-7-7s10-|-10-10-10-10-10---------||
|------------------|------------------------||


 Guitar Solo
  D5                    Bb5                  C5
   E E E E  E E  E  E     E  E E E   E   E E  E
|---------------------|-------------------------|
|---------------------|-------------------------|
|--2-2-2-2--2-2-------|-------------------------|
|--0-0-0-0--0-0-------|---3--3-3-3---3---3-3S=5-|
|----------------3--0-|---1--1-1-1---1---1-1S=3-|
|---------------------|-------------------------|
|
|  E E E E  E E  E  E    +H         +E   Q    E
|---------------------|-------------------------|
|-------------8-10-13-|-(13)-------(13)-13---13-|
|-10p9-7-9-10---------|-------------------------|
|---------------------|-------------------------|
|---------------------|-------------------------|
|---------------------|-------------------------|


   E E  E  E  E  E  E  E    E  E E  E E    E    E  E
|------------------------|-----------------------------|
|------------------------|-----------------------------|
|------------------------|-----------------------------|
|--5-5--5--5--5--5--5--5-|--5--5-5--5-5----5----5--5---|
|--3-3--3--3--3--3--3--3-|--3--3-3--3-3----3----3--3---|
|------------------------|-----------------------------|
|
|                                     |--3---|
|  Q    E  E  E  E  E  E    E  E E  E E  E   E  E  E
|------------------------|-----------------------------|
|-13---13-13-13p10----10-|-----------------------------|
|------------------12----|-12-10-9-10-9h10p==9---------|
|------------------------|---------------------12-10---|
|------------------------|-----------------------------|
|------------------------|-----------------------------|


  D5                                 Bb5                             C5
   E            E  E  E  E E  E  E   E  E  E      E   E      E     E  S     S
|----------------------------------|------------------------------------------|
|----------------------------------|------------------------------------------|
|--2------------2--2--2--2-2-------|------------------------------------------|
|--0------------0--0--0--0-0-------|-3--3--3------3---3------3-----3S=5-----5-|
|-----------------------------3--0-|-1--1--1------1---1------1-----1S=3-----3-|
|----------------------------------|------------------------------------------|
|
|  S      +S   +E  E  E  E E  E  E   E  E  E     +E   E      Q        E
|----------------------------------|------------------------------------------|
|----------------------------------|-----------------13-----13-------13-------|
|------------------9-10-12-9-10----|-9-10-12b14-(12)-12pb14-12pb14---12pb14r==|
|-12b13==(12)r(12)--------------12-|------------------------------------------|
|----------------------------------|------------------------------------------|
|----------------------------------|------------------------------------------|


    E  E  E  E  E  E  E  E    S S  E  E  E  E  E  E  E
|--------------------------|----------------------------|
|--------------------------|----------------------------|
|--------------------------|----------------------------|
|---5--5--5--5--5--5--5--5-|--5-5--5--5--5--5--5--5--5--|
|---3--3--3--3--3--3--3--3-|--3-3--3--3--3--3--3--3--3--|
|--------------------------|----------------------------|
|
|                                                    ~~
|  +Q     E  E  E  E  E  E    E    E  E  E  E  E  E  E
|--------------------------|----------------------------|
|-(13)---13-13-13-13-13-13-|-13---13-13-13--------------|
|-(12)---10--9-10--9-----9-|-10---10--------------------|
|--------------------12----|---------12-10-12-10-12-12--|
|--------------------------|----------------------------|
|--------------------------|----------------------------|


  D5                               Bb5                      C5
    E  E  E    E  E  E      E  E   E E  E    E  E E       E  S S
|--------------------------------|-------------------------------|
|--------------------------------|-------------------------------|
|---2--2--2----2--2--2-----------|-------------------------------|
|---0--0--0----0--0--0-----------|-3-3--3----3--3-3-------3S=5-5-|
|---------------------------3--0-|-1-1--1----1--1-1-------1S=3-3-|
|--------------------------------|-------------------------------|
|
|   ~~~~                    ~~~~
|                                                 |-3--|
|  +Q     S S  E  E  E     +Q      Q    S S  E  E S  S S  E  E
|--------------------------------|-------------------------------|
|--------------------------------|-------------------------------|
|--------10p9----10s12b14-(12)---|-----10p9----10-9h10p9---------|
|-(12)--------12-----------------|-0--------12-----------12-10---|
|--------------------------------|-------------------------------|
|--------------------------------|-------------------------------|


   E E  E    E     E  E E  S S    E  E  E   E   E E      E E
|------------------------------|-----------------------------|
|------------------------------|-----------------------------|
|------------------------------|-----------------------------|
|--5-5--5----5-----5--5-5--5-5-|--5--5--5---5---5-5------5-5-|
|--3-3--3----3-----3--3-3--3-3-|--3--3--3---3---3-3------3-3-|
|------------------------------|-----------------------------|
|
|  ~~
|       |---3---|                       |--3--|   |-3-|
|  Q    E  E    E  E  E E  E      E  E  E E   E E S S S  E E
|------------------------------|-----------------------------|
|------------------------------|-----------------------------|
|------------------------------|-----------------------------|
|-12---10h12p==10--------------|-----------------------------|
|-----------------12-10-8-10---|-10-10-10p8s==7-8-7h8p7------|
|------------------------------|------------------------10-8-|


  D5                        Bb5                     C5
   E E E E  E E    E    E    E E E  E  E       E  E   S   S
|-------------------------|---------------------------------|
|-------------------------|---------------------------------|
|--2-2-2-2--2-2-----------|---------------------------------|
|--0-0-0-0--0-0-----------|--3-3-3--3--3-------3--3S==5---5-|
|------------------3----0-|--1-1-1--1--1-------1--1S==3---3-|
|-------------------------|---------------------------------|
|
|           |----3----|
|  Q   E E  Q    Q    Q      Q   E  E  E      +Q      E
|-------------------------|---------------------------------|
|-------------------------|--------------------------13-----|
|-------------------------|------9-10-12b14==(12)---(12)r---|
|--------------------10---|-12------------------------------|
|------7-8-10s==12--------|---------------------------------|
|-10----------------------|---------------------------------|


   E     E  E  E     E  E       E  E     E     E E E   E  E E E
|------------------------------------|---------------------------|
|------------------------------------|---------------------------|
|------------------------------------|---------------------------|
|--5-----5--5--5-----5--5-------5--5-|---5-----5-5-5---5--5-5-5--|
|--3-----3--3--3-----3--3-------3--3-|---3-----3-3-3---3--3-3-3--|
|------------------------------------|---------------------------|
|
|  Q        E  E     E  E      +Q       +H            +H
|------------------------------------|---------------------------|
|-13----------13-------13-----(13)---|-(13)----------(13)--------|
|-12pb14---10-12pb14---12pb14r(12)---|-(12)b14-------(12)--------|
|------------------------------------|---------------------------|
|------------------------------------|---------------------------|
|------------------------------------|---------------------------|


  D5                                    Bb5                  C5
   E    E     E  E     E  E    E E       E E E    E    E E E S S
|-------------------------------------|--------------------------|
|-------------------------------------|--------------------------|
|--2----2-----2--2-----2--2-----------|--------------------------|
|--0----0-----0--0-----0--0-----------|--3-3-3----3----3-3-3S5-5-|
|------------------------------3-0----|--1-1-1----1----1-1-1S3-3-|
|-------------------------------------|--------------------------|
|
|                                                      ~~
|                                            |--3---|
|  E.      S  E  S  S  E  S  S E S  S    Q   E  E   E  H
|-------------------------------------|--------------------------|
|---------13-------13-------13-----13-|--------------------------|
|-12b14------12-12----10-10----9-9----|-10---9h10p==9------------|
|-------------------------------------|---------------12---------|
|-------------------------------------|--------------------------|
|-------------------------------------|--------------------------|


  E  E E    E    E E E S S     E  E E E E E E E
|--------------------------|----------------------|
|--------------------------|----------------------|
|--------------------------|----------------------|
|-5--5-5----5----5-5-5-5-5-|---5--5-5-5-5-5-5-5---|
|-3--3-3----3----3-3-3-3-3-|---3--3-3-3-3-3-3-3---|
|--------------------------|----------------------|
|
|                ~~~~~~~~~~~~~~~~~
|      |--3---|
| E  E E  E   E  H            +W
|--------------------------|----------------------|
|--------------------------|----------------------|
|-9-10-9h10p==9------------|----------------------|
|---------------12---------|-(12)-----------------|
|--------------------------|----------------------|
|--------------------------|----------------------|


  D5
   E     E     E     E     E     E     E     E
|-------------------------------------------------|
|-------------------------------------------------|
|--2-----2-----2-----2-----2-----2----------------|
|--0-----0-----0-----0-----0-----0----------------|
|--------------------------------------3-----0----|
|-------------------------------------------------|
|
|  S   S S  S  S   S S  S  S   S S  S  S   S S  S
|-------------------------------------------------|
|-------------------------------------------------|
|-[9]h10p9----[9]h10p9----[9]h10p9----[9]h10p9----|
|----------12----------12----------12----------12-|
|-------------------------------------------------|
|-------------------------------------------------|


  Bb5                                        C5
   E     E     E     E     E     E     E     S  S
|-------------------------------------------------|
|-------------------------------------------------|
|-------------------------------------------------|
|--3-----3-----3-----3-----3-----3-----3S====5--5-|
|--1-----1-----1-----1-----1-----1-----1S====3--3-|
|-------------------------------------------------|
|
|  S   S S  S  S   S S  S  S   S S  S  S   S S  S
|-------------------------------------------------|
|-------------------------------------------------|
|-[9]h10p9----[9]h10p9----[9]h10p9----[9]h10p9----|
|----------12----------12----------12----------12-|
|-------------------------------------------------|
|-------------------------------------------------|


    E     E E E E E E S S     E     E E E E E E E
|-------------------------|-----------------------|
|-------------------------|-----------------------|
|-------------------------|-----------------------|
|---5-----5-5-5-5-5-5-5-5-|---5-----5-5-5-5-5-5-5-|
|---3-----3-3-3-3-3-3-3-3-|---3-----3-3-3-3-3-3-3-|
|-------------------------|-----------------------|
|
|   W                         W
|-------------------------|-----------------------|
|-------------------------|-----------------------|
|-[12]b14-----------------|-[12]b14---------------|
|-------------------------|-----------------------|
|-------------------------|-----------------------|
|-------------------------|-----------------------|


  D5                   Bb5                     C5
   E E E E E E E   E    E  E   E E  E  E E     S S
|--------------------|-----------------------------|
|--------------------|-----------------------------|
|--2-2-2-2-2-2-------|-----------------------------|
|--0-0-0-0-0-0-------|--3--3---3-3--3--3-3S====5-5-|
|--------------3---0-|--1--1---1-1--1--1-1S====3-3-|
|--------------------|-----------------------------|
|
|                              ~~~~~~~~
|                                        |-3-|
|  H       E E E a E   +E.   S Q   +Q    S S S E
|--------------------|-----------------------------|
|-^3-----------------|-----------------------------|
|-^2-------5-7-5-----|-----------------------------|
|-^0-------------7s5-|-(5)---3-5---(5)---3h5p3s2---|
|--------------------|-----------------------------|
|--------------------|-----------------------------|


  E E     E E E E  E S S   E   E   E E E E  E E
|------------------------|----------------------|
|------------------------|----------------------|
|------------------------|----------------------|
|-5-5-----5-5-5-5--5-5-5-|-5---5---5-5-5-5--5-5-|
|-3-3-----3-3-3-3--3-3-3-|-3---3---3-3-3-3--3-3-|
|------------------------|----------------------|
|
|               ~~
|   |-3-|                  |--3--|
| E S S S E E E Q.         E E   E E E E Q.
|------------------------|----------------------|
|------------------------|----------------------|
|------------------------|----------------------|
|-3-2h3p2----------------|---------------5------|
|---------5-3-2s3--------|-------2-3-5s7--------|
|------------------------|-3-5------------------|


  D5                 Bb5                C5
  E E E E E E  E E    E  E E E E    E E S S
|------------------|------------------------|
|------------------|------------------------|
|-2-2-2-2-2-2------|------------------------|
|-0-0-0-0-0-0------|--3--3-3-3-3----3-3S5-5-|
|--------------3-0-|--1--1-1-1-1----1-1S3-3-|
|------------------|------------------------|
|
| Q   E E E Q.       +Q    E E H
|------------------|------------------------|
|---------5h6------|-(6)---8p6-8b10---------|
|-----5-7----------|------------------------|
|-7----------------|------------------------|
|------------------|------------------------|
|------------------|------------------------|


   E  E E E       E   E      E  E   E E    E  E       E   E       E   E
|---------------------------------|----------------------------------------|
|---------------------------------|----------------------------------------|
|---------------------------------|----------------------------------------|
|--5--5-5-5-------5---5------5--5-|-5-5----5--5-------5---5-------5---5----|
|--3--3-3-3-------3---3------3--3-|-3-3----3--3-------3---3-------3---3----|
|---------------------------------|----------------------------------------|
|
| +Q    E E      +E  +E     +Q      E Q      +E      +E  +E      +E  +S  S
|-------5-------------------------|-5--------------------------------------|
|-(8)-----8pb10==(8)r(8)b10-(8)---|---8b10r==(8)b10==(8)r(8)b10==(8)r(8)p6-|
|---------------------------------|----------------------------------------|
|---------------------------------|----------------------------------------|
|---------------------------------|----------------------------------------|
|---------------------------------|----------------------------------------|


  D5                     Bb5                  C5
  E  E   E E  E  E E E    E  E E E E     E  E E
|----------------------|-------------------------------|
|----------------------|-------------------------------|
|-2--2---2-2--2--2-----|-------------------------------|
|-0--0---0-0--0--0-----|--3--3-3-3-3-----3--3S5--------|
|------------------3-0-|--1--1-1-1-1-----1--1S3--------|
|----------------------|-------------------------------|
|
|                         ~~~
| E.   S Q   +E  E E E   +Q    E E E    +E  E E
|----------------5-----|--------------------8-8--------|
|------6-8---(8)---6---|-------6---8b10-(8)---8pb10====|
|-7------------------7-|-(7)-----7---------------------|
|----------------------|-------------------------------|
|----------------------|-------------------------------|
|----------------------|-------------------------------|


   E  E E E  E   E  E     E         E  E E E E E  E  E
|--------------------------------|---------------------|
|--------------------------------|---------------------|
|--------------------------------|---------------------|
|--5--5-5-5--5---5--5-----5------|--5--5-5-5-5-5--5--5-|
|--3--3-3-3--3---3--3-----3------|--3--3-3-3-3-3--3--3-|
|--------------------------------|---------------------|
|
| +H        +E  +E  E     E        +H.           +E  E
|-(8)-------(8)-(8)-8-----8------|-(8)-----------(8)-8-|
|-(8)-------(8)r(8)-8pb10-8pb10==|=(8)r==========(8)---|
|--------------------------------|---------------------|
|--------------------------------|---------------------|
|--------------------------------|---------------------|
|--------------------------------|---------------------|


  D5                             Bb5                          C5
   E  E  E     E  E  E E     E   E E     E E E        E     E E
|------------------------------|---------------------------------|
|------------------------------|---------------------------------|
|--2--2--2-----2--2--2---------|---------------------------------|
|--0--0--0-----0--0--0---------|-3-3-----3-3-3--------3-----3S5--|
|----------------------3-----0-|-1-1-----1-1-1--------1-----1S3--|
|------------------------------|---------------------------------|
|
|                      |-3-|       |-3-|     |-----3-----|
| +Q     Q       +Q    S S S E   E S S S E E E    +E    +E  E E
|-(8)---(8)--------------------|---------------------------------|
|--------8pb10r==(8)---6h8p6s5-|-6-5h6p5--------------------5-6h=|
|------------------------------|---------7-5-7b9==(7)r==(7)------|
|------------------------------|---------------------------------|
|------------------------------|---------------------------------|
|------------------------------|---------------------------------|


                                   D.S. al Coda &
  E  E E E     E E E E   E  E E E E E  E   E
|----------------------|------------------------||
|----------------------|------------------------||
|----------------------|------------------------||
|-5--5-5-5-----5-5-5-5-|-5--5-5-5-5-5--5---5----||
|-3--3-3-3-----3-3-3-3-|-3--3-3-3-3-3--3---3----||
|----------------------|------------------------||
|
|                        ~~~~~~~~~~~~~~~~~
|        |-3-|
| Q.     S S S E E E E   H.           +E  +E
|----------------------|------------------------||
|-8------6h8p6s5-6-5---|------------------------||
|--------------------7-|-7------------(7)-(7)\--||
|----------------------|------------------------||
|----------------------|------------------------||
|----------------------|------------------------||


 3rd Verse
  D5                Bb5           C5
  E E E E E E E E   E E E E E E E S S
|-----------------|-------------------|
|-----------------|-------------------|
|-2-2-2-2-2-2-----|-------------------|
|-0-0-0-0-0-0-----|-3-3-3-3-3-3-3S5-5-|
|-------------3-0-|-1-1-1-1-1-1-1S3-3-|
|-----------------|-------------------|
|
| W                 W
|-----------------|-------------------|
|-----------------|-------------------|
|-----------------|-------------------|
|-----------------|-------------------|
|-----------------|-------------------|
|-----------------|-------------------|


  E E E  E    E  E  E       S  S    E       E   E       E   E     E E   E
|--------------------------------|------------------------------------------|
|--------------------------------|------------------------------------------|
|--------------------------------|------------------------------------------|
|-5-5-5--5----5--5--5-------5--5-|--5-------5---5-------5---5-----5-5---5---|
|-3-3-3--3----3--3--3-------3--3-|--3-------3---3-------3---3-----3-3---3---|
|--------------------------------|------------------------------------------|
|
| Q   E  E    E  E  E      +E       E      +E   E      +E   Q.         +E
|--------------------------------|------------------------------------------|
|-------13b15---13-13pb15r(13)---|-13pb15r(13)-13pb15r(13)-13pb15r====(13)\-|
|--------------------------------|------------------------------------------|
|--------------------------------|------------------------------------------|
|--------------------------------|------------------------------------------|
|--------------------------------|------------------------------------------|


  D5                Bb5           C5
  E E E E E E E E   E E E E E E E S S
|-----------------|---------------------|
|-----------------|---------------------|
|-2-2-2-2-2-2-----|---------------------|
|-0-0-0-0-0-0-----|-3-3-3-3-3-3-3S5-5---|
|-------------3-0-|-1-1-1-1-1-1-1S3-3---|
|-----------------|---------------------|
|
| W                 W
|-----------------|---------------------|
|-----------------|---------------------|
|-----------------|---------------------|
|-----------------|---------------------|
|-----------------|---------------------|
|-----------------|---------------------|


  E E E E E E E  S    S     E   E  E    E E E E E
|-----------------------|-------------------------|
|-----------------------|-------------------------|
|-----------------------|-------------------------|
|-5-5-5-5-5-5-5--5----5-|---5---5--5----5-5-5-5-5-|
|-3-3-3-3-3-3-3--3----3-|---3---3--3----3-3-3-3-3-|
|-----------------------|-------------------------|
|
|                                  ~~~~~
| H       Q   E  E         +E   E  H.
|-----------------------|-------------------------|
|-----------------------|------18-----------------|
|---------------17b19---|-(17)----17b19-----------|
|-----------------------|-------------------------|
|-----------------------|-------------------------|
|-----------------------|-------------------------|


  A                   Bb
   E  E E E E E E E    E  E E E E E E E
|-------------------|-------------------|
|-(2)---------------|-(3)---------------|
|--2--2-2-2-2-2-2-2-|--3--3-3-3-3-3-3-3-|
|--2--2-2-2-2-2-2-2-|--3--3-3-3-3-3-3-3-|
|--0--0-0-0-0-0-0-0-|--1--1-1-1-1-1-1-1-|
|-------------------|-------------------|
|
|  W                   W
|-------------------|-------------------|
|-------------------|-------------------|
|-------------------|-------------------|
|-------------------|-------------------|
|-------------------|-------------------|
|-------------------|-------------------|


  C5
   E  E E E E E E E    E  E  E   E E E E E
|-------------------|----------------------||
|-------------------|----------------------||
|-------------------|----------------------||
|--5--5-5-5-5-5-5-5-|--5--5--5---5-5-5-5-5-||
|--3--3-3-3-3-3-3-3-|--3--3--3---3-3-3-3-3-||
|-------------------|----------------------||
|
|           ~~~~~~~~~~~~~~
|  Q.     E H         +Q    +Q     H
|-------------------|----------------------||
|-------------------|----------------------||
|-10------7-9-------|-(9)---(9)\-----------||
|-------------------|----------------------||
|-------------------|----------------------||
|-------------------|----------------------||


 Chorus
  D5                               Bb5              C5
  E E   E       E   E  E    E  E     E  E E E E E E S S
|--------------------------------|----------------------|
|--------------------------------|----------------------|
|-2-2---2-------2---2--2---------|----------------------|
|-0-0---0-------0---0--0---------|---3--3-3-3-3-3-3S5-5-|
|---------------------------3--0-|---1--1-1-1-1-1-1S3-3-|
|--------------------------------|----------------------|
|
|                                    ~~~~
| Q     E      +E   E  Q       E    +W
|--------------------------------|----------------------|
|------------------13------------|----------------------|
|-----[12]b14-(12)----12b14---12-|-(12)-----------------|
|--------------------------------|----------------------|
|--------------------------------|----------------------|
|--------------------------------|----------------------|


  E  E    E  E      E      E      E      S     S    E       E      E   E    E  E   E   E
|------------------------------------------------|---------------------------------------|
|------------------------------------------------|---------------------------------------|
|------------------------------------------------|---------------------------------------|
|-5--5----5--5------5------5------5------5-----5-|--5-------5------5---5----5--5---5---5-|
|-3--3----3--3------3------3------3------3-----3-|--3-------3------3---3----3--3---3---3-|
|------------------------------------------------|---------------------------------------|
|
| E  E    E  E      E      E      E      E          E      +Q         +E   +Q     +E   E
|------------------------------------------------|---------------------------------------|
|------------------------------------------------|---------------------------------------|
|---12b14---12pb14-12pb14-12pb14-12pb14-12pb14---|-12pb14r(12)b14====(12)-(12)r==(12)\---|
|------------------------------------------------|---------------------------------------|
|------------------------------------------------|---------------------------------------|
|------------------------------------------------|---------------------------------------|


  D5                                            Bb5                  C5
  E E  E      E   E         E   E          E      E  E E E   E   E E S S
|---------------------------------------------|--------------------------|
|---------------------------------------------|--------------------------|
|-2-2--2------2---2---------2-----------------|--------------------------|
|-0-0--0------0---0---------0-----------------|---3--3-3-3---3---3-3S5-5-|
|-------------------------------3----------0--|---1--1-1-1---1---1-1S3-3-|
|---------------------------------------------|--------------------------|
|
| Q    E     +E   S  S     +E   S  S      +E     +H         +E   E Q
|---------------------------------------------|--------------------------|
|----------------18------------18-------------|--------------------------|
|-----17b19-(17)----17b19-(17)----17b19==(17)-|-(17)r======(17)\---------|
|---------------------------------------------|--------------------------|
|---------------------------------------------|--------------------------|
|---------------------------------------------|--------------------------|


  E E     E   E      E   E      E   S    S    E  E E E   E  E E E
|------------------------------------------|----------------------|
|------------------------------------------|----------------------|
|------------------------------------------|----------------------|
|-5-5-----5---5------5---5------5---5----5-|--5--5-5-5---5--5-5-5-|
|-3-3-----3---3------3---3------3---3----3-|--3--3-3-3---3--3-3-3-|
|------------------------------------------|----------------------|
|
|                                             ~~~        T
| E E    +E  +E     +E  +E     +E  +E        +H          Q    Q
|------------------------------------------|----------------------|
|------------------------------------------|----------------------|
|---5b7==(5)r(5)b7==(5)r(5)b7==(5)r(5)b7---|-(5)-------(17)-------|
|------------------------------------------|----------------------|
|------------------------------------------|----------------------|
|------------------------------------------|----------------------|


  D5                                    Bb5               C5
  E E E  E       E  E E   E               E   E E E E E E  S    S
|-------------------------------------|----------------------------|
|-------------------------------------|----------------------------|
|-2-2-2--2-------2--2-----------------|----------------------------|
|-0-0-0--0-------0--0-----------------|---3---3-3-3-3-3-3S=5----5--|
|---------------------3---0-----------|---1---1-1-1-1-1-1S=3----3--|
|-------------------------------------|----------------------------|
|
| Q   E  E      +Q.      +S       +S     +H.            E  E
|-------------------------------------|----------------------------|
|-------------------------------------|----------------------------|
|-------12b14==(12)r====(12)b14==(12)-|-(12)r-------------12b14----|
|-------------------------------------|----------------------------|
|-------------------------------------|----------------------------|
|-------------------------------------|----------------------------|


    E  E  E      E      E      E     E  S    S     E  E E E E E E E
|----------------------------------------------|--------------------|
|----------------------------------------------|--------------------|
|----------------------------------------------|--------------------|
|---5--5--5------5------5------5-----5--5----5-|---5--5-5-5-5-5-5-5-|
|---3--3--3------3------3------3-----3--3----3-|---3--3-3-3-3-3-3-3-|
|----------------------------------------------|--------------------|
|
|                                                  ~~~~
|  +Q     E      E      E      Q        E         +W
|----------------------------------------------|--------------------|
|----------------------------------------------|--------------------|
|-(12)---12pb14-12pb14-12pb14-12pb14---12b14---|-(12)---------------|
|----------------------------------------------|--------------------|
|----------------------------------------------|--------------------|
|----------------------------------------------|--------------------|


  D5                                                                                   Bb5                     C5
   E      E      E            E         E            E         E            E           E     E E E E E    E    S     S
|------------------------------------------------------------------------------------|-----------------------------------|
|------------------------------------------------------------------------------------|-----------------------------------|
|--2------2------2------------2---------2------------2-------------------------------|-----------------------------------|
|--0------0------0------------0---------0------------0-------------------------------|--3-----3-3-3-3-3----3S===5-----5--|
|--------------------------------------------------------------3------------0--------|--1-----1-1-1-1-1----1S===3-----3--|
|------------------------------------------------------------------------------------|-----------------------------------|
|
|                |-------3-------|      |-------3-------|      |-------3-------|
|  E      E      E      E        E      E      E        E      E      E        E        H.                 E    E
|------------------------------------------------------------------------------------|-----------------------------------|
|------------------------------------------------------------------------------------|------------------([11])-----------|
|-12pb14-12pb14-12pb14-12pb14---12pb14-12pb14-12pb14---12pb14-12pb14-12pb14---12pb14-|-12pb14------------------12b14=====|
|------------------------------------------------------------------------------------|-----------------------------------|
|------------------------------------------------------------------------------------|-----------------------------------|
|------------------------------------------------------------------------------------|-----------------------------------|


    E  E E E E E E S S     E  E E E E E   E   E
|----------------------|------------------------||
|----------------------|------------------------||
|----------------------|------------------------||
|---5--5-5-5-5-5-5-5-5-|---5--5-5-5-5-5---5---5-||
|---3--3-3-3-3-3-3-3-3-|---3--3-3-3-3-3---3---3-||
|----------------------|------------------------||
|
|   ~~~~~~~~~~~~~~~~~~~~~~~~~~
|  +W                     +H.            +E   E
|----------------------|------------------------||
|----------------------|------------------------||
|-(12)r================|=(12)-----------(12)/---||
|----------------------|------------------------||
|----------------------|------------------------||
|----------------------|------------------------||


 Outro
  D5
   E     E     E     E     E     E     E     E
|-------------------------------------------------|
|-------------------------------------------------|
|--2-----2-----2-----2-----2-----2----------------|
|--0-----0-----0-----0-----0-----0----------------|
|--------------------------------------3-----0----|
|-------------------------------------------------|
|
|  S  S  S  S  S  S  S  S  S  S  S  S  S  S  S  S
|-13p10-13p10-13p10-13p10-13p10-13p10-13p10-13p10-|
|-------------------------------------------------|
|-------------------------------------------------|
|-------------------------------------------------|
|-------------------------------------------------|
|-------------------------------------------------|


  Bb5                          C5
   E     E     E    E   E  E E  S     S
|---------------------------------------|
|---------------------------------------|
|---------------------------------------|
|--3-----3-----3----3---3--3-3S=5-----5-|
|--1-----1-----1----1---1--1-1S=3-----3-|
|---------------------------------------|
|
|  S  S  S  S  Q       +Q    E  E
|-13p10-13p10-13b15---(13)-----13pb14r==|
|---------------------------------------|
|---------------------------------------|
|---------------------------------------|
|---------------------------------------|
|---------------------------------------|


    E  E  E    E     E  E  E  S S    E     E     E     E  E  E E  E
|---------------------------------|---------------------------------|
|---------------------------------|---------------------------------|
|---------------------------------|---------------------------------|
|---5--5--5----5-----5--5--5--5-5-|--5-----5-----5-----5--5--5-5--5-|
|---3--3--3----3-----3--3--3--3-3-|--3-----3-----3-----3--3--3-3--3-|
|---------------------------------|---------------------------------|
|
|         |---3---|
|  +Q     E  E    E  E  E  E  E      E     E     S  S  E  E  E E  E
|-(13)---10h13p==10----10---------|---------------------------------|
|-------------------13----13-10---|---------------------------------|
|---------------------------------|-12b14-12b14-12p10----12-10-9----|
|---------------------------------|-------------------12---------12-|
|---------------------------------|---------------------------------|
|---------------------------------|---------------------------------|


  D5                            Bb5                          C5
   E     E E E E E   E      E   E  E     E  E      E     E E   S  S
|-----------------------------|-------------------------------------|
|-----------------------------|-------------------------------------|
|--2-----2-2-2-2-2------------|-------------------------------------|
|--0-----0-0-0-0-0------------|-3--3-----3--3------3-----3-3S==5--5-|
|--------------------3------0-|-1--1-----1--1------1-----1-1S==3--3-|
|-----------------------------|-------------------------------------|
|
|  H.               +E      E   E  E     E  E      Q.         +E
|-13tr10-----------(13)b15-13-|---13pb15---13pb15-13pb15r====(13)---|
|-----------------------------|-------------------------------------|
|-----------------------------|-------------------------------------|
|-----------------------------|-------------------------------------|
|-----------------------------|-------------------------------------|
|-----------------------------|-------------------------------------|
|
| Gtr III
|  W                            W
|-----------------------------|-------------------------------------|
|-----------------------------|-------------------------------------|
|-----------------------------|-------------------------------------|
|-----------------------------|-------------------------------------|
|-----------------------------|-------------------------------------|
|-----------------------------|-------------------------------------|


   E        E  E  E  E E   E   S S     E  E E E   E   E E S   S
|----------------------------------|-----------------------------|
|----------------------------------|-----------------------------|
|----------------------------------|-----------------------------|
|--5--------5--5--5--5-5---5---5-5-|---5--5-5-5---5---5-5-5---5--|
|--3--------3--3--3--3-3---3---3-3-|---3--3-3-3---3---3-3-3---3--|
|----------------------------------|-----------------------------|
|
|  |--3--|
|  S  S  S  E  E  E  Q    +E   E      +H         +Q     E E
|-10h13p10----10-------------------|-----------------------------|
|----------13----13-13---(13)-13---|-(13)-------(13)\------------|
|----------------------------------|----------------------5b7----|
|----------------------------------|-----------------------------|
|----------------------------------|-----------------------------|
|----------------------------------|-----------------------------|
|
|  W                                   H          Q     E S   S
|----------------------------------|-----------------------------|
|----------------------------------|-----------------------------|
|----------------------------------|----------------------7---7--|
|----------------------------------|-----------------------------|
|----------------------------------|----------------------5---5--|
|----------------------------------|-----------------------------|


  D5                           Bb5                             C5
   E  E E E  E  E     E  E      E  E E E  E      E    E        S    S
|----------------------------|----------------------------------------|
|----------------------------|----------------------------------------|
|--2--2-2-2--2--2-----2--2---|----------------------------------------|
|--0--0-0-0--0--0-----0--0---|--3--3-3-3--3------3----3S=======5----5-|
|----------------------------|--1--1-1-1--1------1----1S=======3----3-|
|----------------------------|----------------------------------------|
|
|            T                            T   T  T  T
| +H         E  E    +E  E     +H         S   S  S  S S    +S  E
|----------------------------|----------------------------------------|
|----------------------------|----------------------------------------|
|-(5)-------17--5pb7r(5)-5b7-|-(5)-------17--17-17-17-5pb7r(5)-5b7====|
|----------------------------|----------------------------------------|
|----------------------------|----------------------------------------|
|----------------------------|----------------------------------------|
|
|  Q.     E +Q        Q         Q.     E +Q           Q
|----------------------------|----------------------------------------|
|----------------------------|----------------------------------------|
|--7------9-(9)------10------|--3------5-(5)----------7---------------|
|----------------------------|----------------------------------------|
|--5------7-(7)-------8------|--1------3-(3)----------5---------------|
|----------------------------|----------------------------------------|


   E  E  E  E E E E S S    S  S E E E E E  E  E
|-----------------------|-----------------------------|
|-----------------------|-----------------------------|
|-----------------------|-----------------------------|
|--5--5--5--5-5-5-5-5-5-|--5--5-5-5-5-5-5--5--5-------|
|--3--3--3--3-3-3-3-3-3-|--3--3-3-3-3-3-3--3--3-------|
|-----------------------|-----------------------------|
|
|        ~~~~~~~~~~~~~~~~~~~~~
| +Q    +H.               +H.             +E  E
|-----------------------|-----------------------------|
|-----------------------|-----------------------------|
|-(5)r==(5)-------------|-(5)-------------(5)-5b7-----|
|-----------------------|-----------------------------|
|-----------------------|-----------------------------|
|-----------------------|-----------------------------|
|
|  W                      +H.              E  S   S
|-----------------------|-----------------------------|
|-----------------------|-----------------------------|
|--5--------------------|-(5)-----------------9---9---|
|-----------------------|-----------------------------|
|--3--------------------|-(3)-----------------7---7---|
|-----------------------|-----------------------------|


  D5                      Bb5                 C5
  E    E E E  E  E  E E    E  E E E  E  E  E  S     S
|-----------------------|-----------------------------|
|-----------------------|-----------------------------|
|-2----2-2-2--2--2------|-----------------------------|
|-0----0-0-0--0--0------|--3--3-3-3--3--3--3S=5-----5-|
|-------------------3-0-|--1--1-1-1--1--1--1S=3-----3-|
|-----------------------|-----------------------------|
|
|                          ~~~
| H          +Q     E E   +H.             +E  E
|-----------------------|-----------------------------|
|-8b10r======(8)----6---|---------------------8b10====|
|---------------------7-|-(7)-------------(7)---------|
|-----------------------|-----------------------------|
|-----------------------|-----------------------------|
|-----------------------|-----------------------------|
|
| Q.       E +Q     Q      Q.     E +Q     Q
|-----------------------|-----------------------------|
|-----------------------|-----------------------------|
|-7--------9-(9)---10---|--3------5-(5)----7----------|
|-----------------------|-----------------------------|
|-5--------7-(7)----8---|--1------3-(3)----5----------|
|-----------------------|-----------------------------|


   E  E E E  E     E  E     S S    E    E  E     E  E     E  E     E
|-------------------------------|---------------------------------------|
|-------------------------------|---------------------------------------|
|-------------------------------|---------------------------------------|
|--5--5-5-5--5-----5--5-----5-5-|--5----5--5-----5--5-----5--5-----5----|
|--3--3-3-3--3-----3--3-----3-3-|--3----3--3-----3--3-----3--3-----3----|
|-------------------------------|---------------------------------------|
|
| +H        +Q       +Q            Q      +Q       +Q       +Q
|-------------------------------|---------------------------------------|
|-(8)r======(8)b10r==(8)b10-----|--8b10r==(8)b10r==(8)b10r==(8)b10------|
|-------------------------------|---------------------------------------|
|-------------------------------|---------------------------------------|
|-------------------------------|---------------------------------------|
|-------------------------------|---------------------------------------|
|
|  W                              +H.                        E     S S
|-------------------------------|---------------------------------------|
|-------------------------------|---------------------------------------|
|--5----------------------------|-(5)------------------------------9-9--|
|-------------------------------|---------------------------------------|
|--3----------------------------|-(3)------------------------------7-7--|
|-------------------------------|---------------------------------------|


  D5                       Bb5               C5
  E     E E E  E  E  E E    E  E E E  E  E E S S
|------------------------|-----------------------|
|------------------------|-----------------------|
|-2-----2-2-2--2--2------|-----------------------|
|-0-----0-0-0--0--0------|--3--3-3-3--3--3-3S5-5-|
|--------------------3-0-|--1--1-1-1--1--1-1S3-3-|
|------------------------|-----------------------|
|
| ~~~~~~~~~~~~~~~~~~~~~~~~~~~~~~
| W                        +W
|------------------------|-----------------------|
|-8b10===================|=(8)r==================|
|------------------------|-----------------------|
|------------------------|-----------------------|
|------------------------|-----------------------|
|------------------------|-----------------------|
|
| Q.        E +Q     Q      Q.     E +Q    Q
|------------------------|-----------------------|
|------------------------|-----------------------|
|-7---------9-(9)---10---|--3------5-(5)---7-----|
|------------------------|-----------------------|
|-5---------7-(7)----8---|--1------3-(3)---5-----|
|------------------------|-----------------------|


   E  E  E    E    E E       E S S    E   E  E   E   E  E    E  E
|----------------------------------|----------------------------------|
|----------------------------------|----------------------------------|
|----------------------------------|----------------------------------|
|--5--5--5----5----5-5-------5-5-5-|--5---5--5---5---5--5----5--5-----|
|--3--3--3----3----3-3-------3-3-3-|--3---3--3---3---3--3----3--3-----|
|----------------------------------|----------------------------------|
|
|        |--3---|    |-3--|                  |--3--|
| +Q     E  E   E  E S  S S  E E      E   E  E E   E E  S S  E  E
|----------------------------------|----------------------------------|
|-(8)------------------------------|----------------------------------|
|-------12p10p==9-10-9h10p9----9---|-10--12-10p9---9-9-10p9-----------|
|---------------------------12-----|------------------------12-10-----|
|----------------------------------|----------------------------------|
|----------------------------------|----------------------------------|
|
|  W                                 +H.                     E  S S
|----------------------------------|----------------------------------|
|----------------------------------|----------------------------------|
|--5-------------------------------|-(5)------------------------9-9---|
|----------------------------------|----------------------------------|
|--3-------------------------------|-(3)------------------------7-7---|
|----------------------------------|----------------------------------|


    D5                         Bb5                        C5
     E  E  E    E  E  E  E E    E    E  E      E  E  E  E S S
||---------------------------|--------------------------------|
||o--------------------------|--------------------------------|
||---2--2--2----2--2--2------|--------------------------------|
||---0--0--0----0--0--0------|--3----3--3------3--3--3--3S5-5-|
||o----------------------3-0-|--1----1--1------1--1--1--1S3-3-|
||---------------------------|--------------------------------|
|
|          ~~~~~
|    q     H.                   Q       E      E  E  E  E E
||---------------------------|--------------------------------|
||o--------------------------|--------------------------------|
||--------12b14--------------|-12b14---12pb14-12-10--9-10-9---|
||--12-----------------------|--------------------------------|
||o--------------------------|--------------------------------|
||---------------------------|--------------------------------|
|
|    Q.         E +Q     Q      Q.             E +Q     Q
||---------------------------|--------------------------------|
||o--------------------------|--------------------------------|
||---7----------9-(9)---10---|--3--------------5-(5)----7-----|
||---------------------------|--------------------------------|
||o--5----------7-(7)----8---|--1--------------3-(3)----5-----|
||---------------------------|--------------------------------|


  E E E E E E E S S    E    E    E  E E  E E      E     5x
|-------------------|-----------------------------------||
|-------------------|----------------------------------o||
|-------------------|-----------------------------------||
|-5-5-5-5-5-5-5-5-5-|--5----5----5--5-5--5-5------5-----||
|-3-3-3-3-3-3-3-3-3-|--3----3----3--3-3--3-3------3----o||
|-------------------|-----------------------------------||
|
|                      |---3---|           |-3-|
| H.          Q        E  E    E E  E E  E S S S  E     5x
|-------------------|-----------------------------------||
|-------------------|----------------------------------o||
|-7s==========9-----|--9p=7------7----7----7h9p7--------||
|-------------------|---------10---10---10-------10-----||
|-------------------|----------------------------------o||
|-------------------|-----------------------------------||
|
| W                   +H.                  E      S S   5x
|-------------------|-----------------------------------||
|-------------------|----------------------------------o||
|-5-----------------|-(5)-------------------------9-9---||
|-------------------|-----------------------------------||
|-3-----------------|-(3)-------------------------7-7--o||
|-------------------|-----------------------------------||            
Submit corrections

↑ Back to top | Tablatures and chords for acoustic guitar and electric guitar, ukulele, drums are parodies/interpretations of the original songs. You may use it for private study, scholarship, research or language learning purposes only