Home » R » Rory Gallagher »

Rory Gallagher - Shadow Play Bass

Artists:  A B C D E F G H I J K L M N O P Q R S T U V W X Y Z # 

Shadow Play Bass

(ver. 1) Click to play this song!
Rory Gallagher
Gtr I (E A D G) - 'Gerry McAvoy - Bass'


 Intro
  Q=160
 4/4
  Gtr I
  Wx4
|--------|
|--------|
|--------|
|--------|


  W          W          W          E E E E E E E E
|----------|----------|----------|-----------------||
|----------|----------|----------|-----------------||
|-5--------|----------|-3--------|-3-3-3-3-3-0-3-4-||
|----------|-6--------|----------|-----------------||


   1st & 2nd Verses
    E E E E E E E E   E E E E E E E E   E E E E E E E E   E E E E E E E E
||------------------|-----------------|-----------------|------------------|
||o-----------------|-----------------|-----------------|------------------|
||o-5-5-5-5-5-5-3-0-|-----------------|-3-3-3-3-3-3-3-3-|-3-3-3-3-3-0-3-4--|
||------------------|-6-6-6-6-6-6-6-6-|-----------------|------------------|


  E E E E E E E E   E E E E E E E E   E E E E E E E E   E E E E E E E E
|-----------------|-----------------|-----------------|-----------------|
|-----------------|-----------------|-----------------|-----------------|
|-5-5-5-5-5-5-3-0-|-----------------|-3-3-3-3-3-3-3-3-|-3-3-3-3-3-0-3-4-|
|-----------------|-6-6-6-6-6-6-6-6-|-----------------|-----------------|


  Q  E E E E E E   Q  E E E E E E   Q  E E E E E E   E E E E E E E E
|----------------|----------------|----------------|-----------------||
|----------------|----------------|----------------|-----------------||
|----------------|----------------|-3--3-3-3-3-3-3-|-3-3-3-3-3-0-3-4-||
|-5--5-5-5-5-5-5-|-6--6-6-6-6-6-6-|----------------|-----------------||


 Chorus
                                     1.
  E E E E E E E E   E E E E E E E E   E E E E E E E E   E E E E E E E E
|-----------------|-----------------|-----------------|------------------||
|-----------------|-----------------|-----------------|-----------------o||
|-5-5-5-5-5-5-3-0-|-----------------|-3-3-3-3-3-3-3-3-|-3-3-3-3-3-0-3-4-o||
|-----------------|-6-6-6-6-6-6-6-6-|-----------------|------------------||


  2.
  E E E E E E E E   E E E E E E E E   E E E E E E E E
|-----------------|-----------------|-----------------|
|-----------------|-----------------|-----------------|
|-3-3-3-3-3-3-3-3-|-3-3-3-3-3-0-3-4-|-5-5-5-5-5-5-3-0-|
|-----------------|-----------------|-----------------|


  E E E E E E E E   E E E E E E E E   E E E E E E E E
|-----------------|-----------------|-----------------||
|-----------------|-----------------|-----------------||
|-----------------|-3-3-3-3-3-3-3-3-|-3-3-3-3-3-0-3-4-||
|-6-6-6-6-6-6-6-6-|-----------------|-----------------||


 Bridge
  $
  Q  E E E E E E   E E E E E E E E   Q  E E E E E E   E E E E E E E E
|----------------|-----------------|----------------|-----------------|
|----------------|-----------------|----------------|-3-2-0-------0-2-|
|----------------|-----------------|-3--3-3-3-3-3-3-|-------3-0-3-----|
|-1--1-1-1-1-1-1-|-1-1-1-1-1-1-1-1-|----------------|-----------------|


  Q  E E E E E E   E E E E E E E E   Q  E E E E E E   E E E E E E E E
|----------------|-----------------|----------------|-----------------|
|----------------|-----------------|----------------|-----------------|
|----------------|-----------------|-3--3-3-3-3-3-3-|-3-3-3-3-3-3-3-2-|
|-1--1-1-1-1-1-1-|-1-1-1-1-1-1-1-1-|----------------|-----------------|


  Q  E E E E E E   E Q  E +E  Q  E   Q  E E E E E E   E E E E E E E E
|----------------|-----------------|----------------|-----------------|
|----------------|-3-2--0-(0)------|----------------|-----------------|
|-1--1-1-1-1-1-1-|------------3----|----------------|-----------------|
|----------------|---------------6-|-5--5-5-5-5-5-5-|-5-5-5-5-5-5-5-6-|


                                                                 To Coda
  E E E E E E E E   E E E E E E E E   E E E E E E E E   E E E E E E E E
|-----------------|-----------------|-----------------|------------------||
|-----------------|-----------------|-----------------|-5-5-5-5-5-5-5-5--||
|-3-3-3-3-3-3-3-3-|-5-5-5-5-5-5-5-5-|-7-7-7-7-7-7-7-7-|------------------||
|-----------------|-----------------|-----------------|------------------||


 Guitar Solo
  E E E E E E E E   E E E E E E E E   E E E E E E E E   E E E E E E E E
|-----------------|-----------------|-----------------|-----------------|
|-----------------|-----------------|-----------------|-----------------|
|-5-5-5-5-5-5-3-0-|-----------------|-3-3-3-3-3-3-3-3-|-3-3-3-3-3-0-3-4-|
|-----------------|-6-6-6-6-6-6-6-6-|-----------------|-----------------|


  E E E E E E E E   E E E E E E E E   E E E E E E E E   E E E E E E E E
|-----------------|-----------------|-----------------|-----------------|
|-----------------|-----------------|-----------------|-----------------|
|-5-5-5-5-5-5-3-0-|-----------------|-3-3-3-3-3-3-3-3-|-3-3-3-3-3-0-3-4-|
|-----------------|-6-6-6-6-6-6-6-6-|-----------------|-----------------|


  E E E E E E E E   E E E E E E E E   E E E E +E  E E E   E E E E E E E E
|-----------------|-----------------|-------------------|-----------------|
|-----------------|-----------------|-------------------|-----------------|
|-5-5-5-5-5-5-3-0-|-----------------|-3-3-3-3-(3)-3-3-3-|-3-3-3-3-3-0-3-4-|
|-----------------|-6-6-6-6-6-6-6-6-|-------------------|-----------------|


  E E E E E E E E   E E E E E E E E   E E E E E E E E   E E E E E E E E
|-----------------|-----------------|-----------------|-----------------|
|-----------------|-----------------|-----------------|-----------------|
|-5-5-5-5-5-5-3-0-|-----------------|-3-3-3-3-3-3-3-3-|-3-3-3-3-3-0-3-4-|
|-----------------|-6-6-6-6-6-6-6-6-|-----------------|-----------------|


  E E E E E E E E   E E E E E E E E   E E E E +E  E E E   E E E E E E E E
|-----------------|-----------------|-------------------|-----------------|
|-----------------|-----------------|-------------------|-----------------|
|-5-5-5-5-5-5-3-0-|-----------------|-3-3-3-3-(3)-3-3-3-|-3-3-3-3-3-0-3-4-|
|-----------------|-6-6-6-6-6-6-6-6-|-------------------|-----------------|


  E E E E E E E E   E E E E E E E E   E E E E E E E E   E E E E E E E E
|-----------------|-----------------|-----------------|-----------------|
|-----------------|-----------------|-----------------|-----------------|
|-5-5-5-5-5-5-3-0-|-----------------|-3-3-3-3-3-3-3-3-|-3-3-3-3-3-0-3-4-|
|-----------------|-6-6-6-6-6-6-6-6-|-----------------|-----------------|


  E E E E E E E E   E E E E E E E E   E E E E +E  E E E   E E E E E E E E
|-----------------|-----------------|-------------------|-----------------|
|-----------------|-----------------|-------------------|-----------------|
|-5-5-5-5-5-5-3-0-|-----------------|-3-3-3-3-(3)-3-3-3-|-3-3-3-3-3-0-3-4-|
|-----------------|-6-6-6-6-6-6-6-6-|-------------------|-----------------|


  E E E E E E E E   E E E E E E E E   E E E E E E E E   E E E E E E E E
|-----------------|-----------------|-----------------|-----------------|
|-----------------|-----------------|-----------------|-----------------|
|-5-5-5-5-5-5-3-0-|-----------------|-3-3-3-3-3-3-3-3-|-3-3-3-3-3-0-3-4-|
|-----------------|-6-6-6-6-6-6-6-6-|-----------------|-----------------|


  E E E E E E E E   E E E E E E E E   E E E E E E E E   E E E E E E E E
|-----------------|-----------------|-----------------|-----------------|
|-----------------|-----------------|-----------------|-----------------|
|-5-5-5-5-5-5-3-0-|-1-1-1-1-1-1-1-1-|-3-3-3-3-3-3-3-3-|-3-3-3-3-3-0-3-4-|
|-----------------|-----------------|-----------------|-----------------|


                                                            D.S. al Coda
  E E E E E E E E   E E E E E E E E   E E E E E E E E   E E E E E E E E
|-----------------|-----------------|-----------------|------------------||
|-----------------|-----------------|-----------------|------------------||
|-5-5-5-5-5-5-3-0-|-----------------|-3-3-3-3-3-3-3-3-|-3-3-3-3-3-0-3-4--||
|-----------------|-6-6-6-6-6-6-6-6-|-----------------|------------------||


 3rd Verse
  &
  E E E E E E E E   E E E E E E E E   E E E E E E E E   E E E E E E E E
|-----------------|-----------------|-----------------|-----------------|
|-----------------|-----------------|-----------------|-----------------|
|-5-5-5-5-5-5-3-0-|-----------------|-3-3-3-3-3-3-3-3-|-3-3-3-3-3-0-3-4-|
|-----------------|-6-6-6-6-6-6-6-6-|-----------------|-----------------|


  E E E E E E E E   E E E E E E E E   E E E E E E E E   E E E E E E E E
|-----------------|-----------------|-----------------|-----------------|
|-----------------|-----------------|-----------------|-----------------|
|-5-5-5-5-5-5-3-0-|-----------------|-3-3-3-3-3-3-3-3-|-3-3-3-3-3-0-3-4-|
|-----------------|-6-6-6-6-6-6-6-6-|-----------------|-----------------|


  Q  E E E E E E   Q  E E E E E E   Q  E E E E E E   E E E E E E E E
|----------------|----------------|----------------|-----------------||
|----------------|----------------|----------------|-----------------||
|----------------|------------5-4-|-3--3-3-3-3-3-3-|-3-3-3-3-3-0-3-4-||
|-5--5-5-5-5-5-5-|-6--6-6-6-6-----|----------------|-----------------||


   Chorus
    E E E E E E E E   E E E E E E E E   E E E E E E E E   E E E E E E E E   4x
||------------------|-----------------|-----------------|-------------------||
||o-----------------|-----------------|-----------------|------------------o||
||o-5-5-5-5-5-5-3-0-|-----------------|-3-3-3-3-3-3-3-3-|-3-3-3-3-3-0-3-4--o||
||------------------|-6-6-6-6-6-6-6-6-|-----------------|-------------------||


   Outro
    E E E E E E E E   E E E E E E E E   E E E E E E E E   E E E E E E E E  10x
||------------------|-----------------|-----------------|-------------------||
||o-----------------|-----------------|-----------------|------------------o||
||o-5-5-5-5-5-5-3-0-|-----------------|-3-3-3-3-3-3-3-3-|-3-3-3-3-3-0-3-4--o||
||------------------|-6-6-6-6-6-6-6-6-|-----------------|-------------------||            
Submit corrections

↑ Back to top | Tablatures and chords for acoustic guitar and electric guitar, ukulele, drums are parodies/interpretations of the original songs. You may use it for private study, scholarship, research or language learning purposes only