» » »

Rory Gallagher - Do You Read Me Tabs

Artists:  A B C D E F G H I J K L M N O P Q R S T U V W X Y Z # 

Do You Read Me Tabs

(ver. 1) Click to play this song!
Rory Gallagher
 Rating:
4/5 (4 votes)

 Do You Read Me lessons Tabs too difficult? Try these video lessons and learn fast
 
                Do you read me                                  


Rory Gallagher
                                                                      
E||------|------|------|------------------------|--------------------|
B||------|------|------|------------------------|--------------------|
G||------|------|------|--10----10----5----5----|--5h7---------------|
D||------|------|------|--10--------------------|--------------------|
A||------|------|------|--8---------------------|--------------------|
E||------|------|------|------------------------|--------------------|


                                                                                
-------------------------------|-------------------|---------------------------|
-------------------------------|-------------------|---------------------------|
--10----5------5-7-5---5-------|-------------------|------------------5--------|
-----------5/7-------7---7-5/3-|-------------------|------3h5h3---3/5----------|
-------------------------------|--3b---------------|--3/5-------5--------------|
-------------------------------|-------------------|---------------------------|


                                                                                
---------------------------|-----------------------------|-----------10~-------|
---------------------------|------6-8-8r---8--6--6-5-----|---------------------|
---------------------------|--5-7--------------------7-5-|--7b-----------------|
------3h5h3---3------------|-----------------------------|---------------------|
--3/5-------5----3-------5-|-----------------------------|---------------------|
---------------------------|-----------------------------|---------------------|


                                                                     
--1----------------|--0----------------|----------------------------|
--1----------------|--1----------------|----------------------------|
--2----------------|--0----------------|--------10------------12----|
--3----------------|--2----------------|--------10------------12----|
--3----------------|--3----------------|----------------------------|
-------------------|-------------------|--10----------10--10--------|


                                                                     
----------------------------|--1----------------|--0----------------|
----------------------------|--1----------------|--1----------------|
--------10------------12----|--2----------------|--0----------------|
--------10------------12----|--3----------------|--2----------------|
----------------------------|--3----------------|--3----------------|
--10----------10--10--------|-------------------|-------------------|


                                                                                
----------------------------|---------------------|----------------------------|
----------------------------|---------------------|----------------------------|
--------10------------12----|---------------------|--------10------------12----|
--------10------------12----|--------7------------|--------10------------12----|
----------------------------|--------7------------|----------------------------|
--10----------10--10--------|--10-----------------|--10----------10--10--------|


                                                          
----------------------------|----------------------------|
----------------------------|----------------------------|
--------10------------12----|--------10------------12----|
--------10------------12----|--------10------------12----|
----------------------------|----------------------------|
--10----------10--10--------|--10----------10--10--------|


                                                                     
----------------------------|--1----------------|--0----------------|
----------------------------|--1----------------|--1----------------|
--------10------------12----|--2----------------|--0----------------|
--------10------------12----|--3----------------|--2----------------|
----------------------------|--3----------------|--3----------------|
--10----------10--10--------|-------------------|-------------------|


                                                          
----------------------------|----------------------------|
----------------------------|----------------------------|
--------10------------12----|--------10------------12----|
--------10------------12----|--------10------------12----|
----------------------------|----------------------------|
--10----------10--10--------|--10----------10--10--------|


                                                          
----------------------------|----------------------------|
----------------------------|----------------------------|
--------10------------12----|--------10------------12----|
--------10------------12----|--------10------------12----|
----------------------------|----------------------------|
--10----------10--10--------|--10----------10--10--------|


                                                                              
----------------------------|----------------------------|--1----------------|
----------------------------|----------------------------|--1----------------|
--------10------------12----|--12r--10-12--7--7-9-7~-----|--2----------------|
--------10------------12----|----------------------------|--3----------------|
----------------------------|----------------------------|--3----------------|
--10----------10--10--------|----------------------------|-------------------|


                                                                              
--0----------------|----------------------------|----------------------------|
--1----------------|----------------------------|----------------------------|
--0----------------|--------10------------12----|--------10------------12----|
--2----------------|--------10------------12----|--------10------------12----|
--3----------------|----------------------------|----------------------------|
-------------------|--10----------10--10--------|--10----------10--10--------|


                                                                     
--1----------------|--0----------------|----------------------------|
--1----------------|--1----------------|----------------------------|
--2----------------|--0----------------|--------10------------12----|
--3----------------|--2----------------|--------10------------12----|
--3----------------|--3----------------|----------------------------|
-------------------|-------------------|--10----------10--10--------|


                                                                     
----------------------------|--------------------|------------------|
----------------------------|--------------------|------------------|
--------10------------12----|---------------5----|------------------|
--------10------------12----|--3------------5----|------------------|
----------------------------|--3------------3----|------------------|
--10----------10--10--------|--1-----------------|------------------|


                                                                 
--------------------|----------------------|--------------------|
--------------------|---------6------------|--------------------|
-----------5b-------|--5b-------5b---------|---------------5----|
--7-----------------|----------------------|--3------------5----|
--7-----------------|----------------------|--3------------3----|
--5-----------------|----------------------|--1-----------------|


                                                                 
------------------|--------------------------|------------------|
------------------|--------------------------|------------------|
------------------|--7~----------------------|------------------|
------------------|--7--------5-3-2-3-5-3----|------------------|
------------------|--7-----------------------|------------------|
------------------|--5-----------------------|------------------|


                                                      
--------------------------|--------------------------|
--3--3--x--3--x--3--x--3--|--3--3--x--3--x--3--x--3--|
--3--3--x--3--x--3--x--3--|--3--3--x--3--x--3--x--3--|
--2--2--x--2--x--2--x--2--|--2--2--x--2--x--2--x--2--|
--3--3--x--3--x--3--x--3--|--3--3--x--3--x--3--x--3--|
--------------------------|--------------------------|


                                                      
--------------------------|--------------------------|
--5--5--x--5--x--5--x--5--|--5--5--x--5--x--5--x--5--|
--5--5--x--5--x--5--x--5--|--5--5--x--5--x--5--x--5--|
--4--4--x--4--x--4--x--4--|--4--4--x--4--x--4--x--4--|
--5--5--x--5--x--5--x--5--|--5--5--x--5--x--5--x--5--|
--------------------------|--------------------------|


                                                                               
--------------------------|--------------------------|------------------------|
--3--3--x--3--x--3--x--3--|--3--3--x--3--x--3--x--3--|--2--2--2--2--------x-x-|
--3--3--x--3--x--3--x--3--|--3--3--x--3--x--3--x--3--|--2--2--2--2--------x-x-|
--2--2--x--2--x--2--x--2--|--2--2--x--2--x--2--x--2--|--2--2--2--2--------x-x-|
--3--3--x--3--x--3--x--3--|--3--3--x--3--x--3--x--3--|------------------------|
--------------------------|--------------------------|------------------------|


                                                                            
-----------------------|----------------------|----------------------------|
--5--5--5--5-----------|----------------------|----------------------------|
--5--5--5--5---------0-|--10--------5--7------|--10----10----5--7----------|
--5--5--5--5-----------|----------------------|----------------------6-5-3-|
-----------------------|----------------------|----------------------------|
-----------------------|----------------------|----------------------------|


                                                                        
-------------------------|---------------------|----8r-----10~-----8h5-|
-------------------------|---------6-----------|-----------------------|
--------------7--5--5r---|--5b--------5b-------|-----------------------|
--5--3--5--3-------------|---------------------|-----------------------|
-------------------------|---------------------|-----------------------|
-------------------------|---------------------|-----------------------|


                                                                  
--8--8--8-5---5--------------|--------------10h12h10/8-x---------|
------------8---8r--8-10--6--|--18b-18-------------------15--13~-|
-----------------------------|-----------------------------------|
-----------------------------|-----------------------------------|
-----------------------------|-----------------------------------|
-----------------------------|-----------------------------------|


                                                        
--------------------|--------13--15b---15b---13-15-----|
--15~---------------|--13-15-----------------------15--|
--------------------|----------------------------------|
--------------------|----------------------------------|
--------------------|----------------------------------|
--------------------|----------------------------------|


                                                                
--------13-15b---15b---13-------|--15b---15b---13--15--13--15--|
--13-15-------------------15~---|------------------------------|
--------------------------------|------------------------------|
--------------------------------|------------------------------|
--------------------------------|------------------------------|
--------------------------------|------------------------------|


                                                         
--13--15----20--17~---17/--x-|--------------------------|
-----------------------------|--------------------------|
-----------------------------|-----5--7--5-----5--7--5--|
-----------------------------|--7-----------7-----------|
-----------------------------|--------------------------|
-----------------------------|--------------------------|


                                                                           
------------------------|--------------------------|----------------------|
------------------------|--------------------------|----------------------|
------------------------|--------------------------|----------------------|
--3-5-3--5b-3--5r-------|--5~-------3h5h3h2h0~-----|----------------------|
------------------------|----------------------0h3-|--3-3---3/5-----------|
------------------------|--------------------------|----------------------|


                                                      
--------------------------|--------------------------|
--3--3--x--3--x--3--x--3--|--3--3--x--3--x--3--x--3--|
--3--3--x--3--x--3--x--3--|--3--3--x--3--x--3--x--3--|
--2--2--x--2--x--2--x--2--|--2--2--x--2--x--2--x--2--|
--3--3--x--3--x--3--x--3--|--3--3--x--3--x--3--x--3--|
--------------------------|--------------------------|


                                                      
--------------------------|--------------------------|
--5--5--x--5--x--5--x--5--|--5--5--x--5--x--5--x--5--|
--5--5--x--5--x--5--x--5--|--5--5--x--5--x--5--x--5--|
--4--4--x--4--x--4--x--4--|--4--4--x--4--x--4--x--4--|
--5--5--x--5--x--5--x--5--|--5--5--x--5--x--5--x--5--|
--------------------------|--------------------------|


                                                                               
--------------------------|--------------------------|------------------------|
--3--3--x--3--x--3--x--3--|--3--3--x--3--x--3--x--3--|--2--2--2--2--------x-x-|
--3--3--x--3--x--3--x--3--|--3--3--x--3--x--3--x--3--|--2--2--2--2--------x-x-|
--2--2--x--2--x--2--x--2--|--2--2--x--2--x--2--x--2--|--2--2--2--2--------x-x-|
--3--3--x--3--x--3--x--3--|--3--3--x--3--x--3--x--3--|------------------------|
--------------------------|--------------------------|------------------------|


                                                     
-----------------------|----------------------------|
--5--5--5--5-----------|----------------------------|
--5--5--5--5---------0-|--------10------------12----|
--5--5--5--5-----------|--------10------------12----|
-----------------------|----------------------------|
-----------------------|--10----------10--10--------|


                                                          
----------------------------|----------------------------|
----------------------------|----------------------------|
--------10------------12----|--------10------------12----|
--------10------------12----|--------10------------12----|
----------------------------|----------------------------|
--10----------10--10--------|--10----------10--10--------|


                                                                     
----------------------------|--1----------------|--0----------------|
----------------------------|--1----------------|--1----------------|
--------10------------12----|--2----------------|--0----------------|
--------10------------12----|--3----------------|--2----------------|
----------------------------|--3----------------|--3----------------|
--10----------10--10--------|-------------------|-------------------|


                                                                        
----------------------|-------------------|----------------------------|
----------------------|-------------------|----------------------------|
--5r-------5r--5-5r---|--5b---------------|--------10------------12----|
----------------------|-------------------|--------10------------12----|
----------------------|-------------------|----------------------------|
----------------------|-------------------|--10----------10--10--------|


                                                          
----------------------------|----------------------------|
----------------------------|----------------------------|
--------10------------12----|--------10------------12----|
--------10------------12----|--------10------------12----|
----------------------------|----------------------------|
--10----------10--10--------|--10----------10--10--------|


                                                                     
----------------------------|--1----------------|--0----------------|
----------------------------|--1----------------|--1----------------|
--------10------------12----|--2----------------|--0----------------|
--------10------------12----|--3----------------|--2----------------|
----------------------------|--3----------------|--3----------------|
--10----------10--10--------|-------------------|-------------------|


                                                          
----------------------------|----------------------------|
----------------------------|----------------------------|
--------10------------12----|--------10------------12----|
--------10------------12----|--------10------------12----|
----------------------------|----------------------------|
--10----------10--10--------|--10----------10--10--------|


                                                                               
--1-------------------|---------------------|---------------------------------|
--1-------------------|---------------------|---------------------------------|
--2----------2--3--5b-|------2--3--5b-------|--------5-7-5---5----------------|
--3-------------------|---------------------|----5/7-------7---5/3-0-5--5-5-3-|
--3-------------------|---------------------|---------------------------------|
----------------------|---------------------|---------------------------------|


                                                            
-------------------|--1----------------|--0----------------|
-------------------|--1----------------|--1----------------|
-------------------|--2----------------|--0----------------|
--0~---------------|--3----------------|--2----------------|
-------------------|--3----------------|--3----------------|
-------------------|-------------------|-------------------|


                                                                                
----------------------------|----------------------------|--8b-----------8r-5--|
----------------------------|----------------------------|---------------------|
--------10------------12----|--------10------------12----|---------------------|
--------10------------12----|--------10------------12----|---------------------|
----------------------------|----------------------------|---------------------|
--10----------10--10--------|--10----------10--10--------|---------------------|


                                                         
-------------------------|------------------------------|
--8--6--8b---8--8--8h6---|------------------------------|
-------------------------|--5h6h7-----------------------|
-------------------------|---------5h6-7--2h3-5---------|
-------------------------|-----------------------3h4-5--|
-------------------------|------------------------------|


                                                               
------------------------------|-------------------------------|
------------------------------|-------------------------------|
--5h6h7-----------------------|-----5--5-5-5-5---5-5-5-5---5--|
---------5h6-7--2h3-5---------|--7-------------7---------7----|
-----------------------3h4-5--|-------------------------------|
------------------------------|-------------------------------|


                                                            
--------------------------|--------------------------------|
--------------------------|--------------------------------|
-----5--5--5-----5--5--5--|----5-5-5---5-5-5---5-5-5----5--|
--7-----------7-----------|--7-------7-------7-------7-----|
--------------------------|--------------------------------|
--------------------------|--------------------------------|


                                                                                
----------------------|--------------------------|-----------------------------|
----------------------|--------------------------|-----------------------------|
--7----7----7/---0----|--------------------------|-----------------------5-6-7-|
----------------------|--------------------------|-----------------------------|
-----------------3/---|--5--5--5-7-5-7-5~--------|-----------------------------|
----------------------|-----------------------3/-|--5--5--5-7-5-7-5~-----------|


                                                    
----------8-------------|--------------------------|
--8r---8b---8~8b---8b---|--8b-------10/---0--------|
------------------------|--------------------12/14-|
------------------------|--------------------------|
------------------------|--------------------------|
------------------------|--------------------------|


                                                                          
--------------------------------------|----------------------------------|
--13--15--15b-15-13-13--15--15b-15-13-|--13--15--15b-15-13-13--15--15b---|
--------------------------------------|----------------------------------|
--------------------------------------|----------------------------------|
--------------------------------------|----------------------------------|
--------------------------------------|----------------------------------|


                                                                      
---------------------------|--------------------|--------------------|
------12-10~----------8r---|--13b---------------|--------------------|
--------------12--10-------|--------------------|---------------5----|
---------------------------|--------------------|--3------------5----|
---------------------------|--------------------|--3------------3----|
---------------------------|--------------------|--1-----------------|


                                                                       
------------------|----------------------------|----------------------|
------------------|----------------------------|----------------------|
------------------|--------10----10--10--------|----------------------|
------------------|--------10----10--10--12----|----------10-12-------|
------------------|----------------------------|----------------------|
------------------|--10------------------------|----------------------|


                                                                 
--------------------|------------------|------------------------|
--------------------|------------------|--------x----13r---x----|
---------------5----|------------------|--------x----------x----|
--3------------5----|------------------|--------x----------x----|
--3------------3----|------------------|------------------------|
--1-----------------|------------------|--10--------------------|


                                                        
--------------------------|--12--10--8--7--5--3--1--0--|
--------------------------|----------------------------|
--------10----------12----|----------------------------|
--------10----------12----|----------------------------|
--------------------------|----------------------------|
--10----------10----------|----------------------------|


                                                                    
--0--1--3--5--7--8--7-8-7-5-|--8b---------------|------------------|
----------------------------|-------------------|------------------|
----------------------------|-------------------|------------------|
----------------------------|-------------------|------------------|
----------------------------|-------------------|------------------|
----------------------------|-------------------|------------------|


                    
------------------||
------------------||
------------------||
------------------||
------------------||
------------------||
            
Submit corrections


        Do You Read Me lessons Hard to play? Try these video lessons and learn fast Do You Read Me lessons
        
↑ Back to top | Tablatures and chords for acoustic guitar and electric guitar, ukulele, drums are parodies/interpretations of the original songs. You may use it for private study, scholarship, research or language learning purposes only