» » »

Rodrigo Y Gabriela - Sunday Neurosis Tabs

Artists:  A B C D E F G H I J K L M N O P Q R S T U V W X Y Z # 

Sunday Neurosis Tabs

(ver. 1) Click to play this song!
Rodrigo Y Gabriela
 Rating:
2.6/5 (25 votes)

 Sunday Neurosis  lessons Tabs too difficult? Try these video lessons and learn fast
 
                Tuning: Standard

||-------------------------|---------------------------|----------------------|--------------------------|
||-------------------------|---------------------------|----------------------|--------------------------|
|*-------------------------|---------------------------|----------------------|--------------------------|
|*-----12---12-------------|-----11----11--------------|-----6---6------------|-----9-----9------7-----7-|
||---7----7----------------|---7-----7-----------------|---2---2--------------|---5-----5------4-----4---|
||-0-----------------------|-0-------------------------|-0--------------------|-0-----0------0-----0-----|

|-------------------------|---------------------------|----------------------|--------------------------||
|-------------------------|---------------------------|----------------------|--------------------------||
|-------------------------|---------------------------|----------------------|--------------------------*|
|-----12---12-------------|-----11----11--------------|-----6---6------------|-----2---2----------------*|
|---7----7----------------|---7-----7-----------------|---2---2--------------|---2---2------------------||
|-0-----------------------|-0-------------------------|-0--------------------|-0---------0--------------||

||-------------------------|---------------------------|----------------------|--------------------------||
||-------------------------|---------------------------|----------------------|--------------------------||
|*-------------------------|---------------------------|----------------------|--------------------------*|
|*-----12---12-----12---12-|-----11----11-----11----11-|-----6---6------6---6-|-----9-----9------7-----7-*|
||---7----7------7----7----|---7-----7------7-----7----|---2---2------2---2---|---5-----5------4-----4---||
||-0-----------0-----------|-0------------0------------|-0----------0---------|-0-----0------0-----0-----||

|-------------------------|---------------------------|----------------------|----------------------------|
|-------------------------|---------------------------|----------------------|----------------------------|
|-------------------------|---------------------------|----------------------|----------------------------|
|-----12---12-----12---12-|-----11----11-----11----11-|-----6---6------6---6-|-5-5-5-5-5-5-5-5-5-5-2------|
|---7----7------7----7----|---7-----7------7-----7----|---2---2------2---2---|-5-5-5-5-5-5-5-5-5-5-2------|
|-0-----------0-----------|-0------------0------------|-0----------0---------|-3-3-3-3-3-3-3-3-3-3-0------|

|----------|---------------|--------------|-----------------||--------------|--------------||
|----------|--------10-----|-3----2-3-----|-2---------------||-3----2-3-----|-2------------||
|----------|-----12--------|-4--------4---|-2----2-4--------|*-4--------4---|-2----4-------*|
|----------|---------------|--------------|--------2--------|*--------------|--------------*|
|----------|---------------|--------------|-----------------||--------------|--------------||
|----------|---------------|--------------|------------0----||--------------|---------0----||

|----12-------------|---------------------|--------------------------------|-----------------------------|
|-12----15--15b17---|---------------------|--------------------------------|-----------------------------|
|-------------------|-14b15br14-12-14-12/-|----12----12----14b15br14-12----|-12-12-12h11-9-7/9-----------|
|-------------------|---------------------|-14----14----14--------------14-|-----------------------------|
|-------------------|---------------------|--------------------------------|-----------------------------|
|-------------------|---------------------|--------------------------------|-----------------------------|

|----12-------------|--------------------------|-------------------------|---------------------|
|-12----15--15b17---|-15b17-15b17-15b17-15br17-|-------------------------|---------------------|
|-------------------|--------------------------|-12h14-12h14-12h14-12h14-|-12-12-12h11-9-7/9---|
|-------------------|--------------------------|-------------------------|---------------------|
|-------------------|--------------------------|-------------------------|---------------------|
|-------------------|--------------------------|-------------------------|---------------------|

|-----------------------|-----------------------------|--------------------|-------------------------------|
|----12/----------------|-----------------------------|----12/-------------|-------------------------------|
|-14-------14-12-11-----|-12-14-11------12p11---------|-14-------14-12-----|-12-14-11----12-12-12p11-------|
|-----------------------|---------------------12/14---|--------------------|-------------------------12/14-|
|-----------------------|-----------------------------|--------------------|-------------------------------|
|-----------------------|-----------------------------|--------------------|-------------------------------|
  3:43
|----12-------------|--------------------------------------------------------------------------------------|
|-12----15--15b17---|-15b17-15b17-15b17-15br17-15br17-15br17-15br17-15br17-15br17-15br17-15br17--15--------|
|-------------------|-------------------------------------------------------------------------------14-----|
|-------------------|--------------------------------------------------------------------------------------|
|-------------------|--------------------------------------------------------------------------------------|
|-------------------|--------------------------------------------------------------------------------------|

|----------------|--------------------------------|--------------------------------|
|----------------|--------------------------------|-----8-8p7-7-7-7----8p7---------|
|-14-14-14p12----|-14-12-14-12-14-12-14-12--------|-7-9--------------------7-7/9---|
|-------------14-|-------------------------14/----|--------------------------------|
|----------------|--------------------------------|--------------------------------|
|----------------|--------------------------------|--------------------------------|

|---------------------|-------------------------|-----------------|------------------|
|---7---7---7---7---7-|---7---7---7---7---7-----|---8---8---8---8-|---8---8---8---8--|
|-7---7---7---7---7---|-7---7---7---7---7---7/9-|-9---9---9---9---|-9---9---9---9----|
|---------------------|-------------------------|-----------------|------------------|
|---------------------|-------------------------|-----------------|------------------|
|---------------------|-------------------------|-----------------|------------------|
                                                                          x5   
|--------------|--------------|--------------|--------------||--------------||
|-3----2-3-----|-2------------|-3----2-3-----|-2------------||--------------||
|-4--------4---|-2----4-------|-4--------4---|-2------------|*--------------*|
|--------------|---------2----|--------------|---------2----|*---------2----*|
|--------------|---------2----|--------------|---------2----||---------2----||
|--------------|---------0----|--------------|------3--0----||------3--0----||            
Submit corrections


        Sunday Neurosis  lessons Hard to play? Try these video lessons and learn fast Sunday Neurosis  lessons
        
↑ Back to top | Tablatures and chords for acoustic guitar and electric guitar, ukulele, drums are parodies/interpretations of the original songs. You may use it for private study, scholarship, research or language learning purposes only