» » »

Rodrigo Y Gabriela - Diablo Rojo Tabs

Artists:  A B C D E F G H I J K L M N O P Q R S T U V W X Y Z # 

Diablo Rojo Tabs

(ver. 1) Click to play this song!
Rodrigo Y Gabriela
 Rating:
4/5 (9 votes)

 Diablo Rojo lessons Tabs too difficult? Try these video lessons and learn fast
 
                (Intro)
I only tabbed Rodrigo's part this time because Gabriela's is really wierd. I've seen her 
it live up front but I still dont know how it's played. This is as far as I've come for 
moment anyway.

e|----------------|-------------------|----------------|--------------7-|
B|----------------|----------10-9-----|----------------|----------9-10--|
G|---------9-8----|7-10-9--------10-9-|---------9-8----|7-10-9----------|
D|7--10-9-9---10-9|------10-9---------|7--10-9-9---10-9|------10-9------|
A|----------------|-------------------|----------------|----------------|
E|----------------|-------------------|----------------|----------------|

e|----------------|-------------------|----------------|----------------7-|
B|----------------|----------10-9-----|----------------|------------9-10--|
G|---------9-8----|7-10-9--------10-9-|---------9-8----|7-10-9-7----------|
D|7--10-9-9---10-9|------10-9---------|7--10-9-9---10-9|--------10-9------|
A|----------------|-------------------|----------------|------------------|
E|----------------|-------------------|----------------|------------------|

e|----------------|-------------------|----------------|--------------7-|
B|----------------|----------10-9-----|----------------|----------9-10--|
G|---------9-8----|7-10-9--------10-9-|---------9-8----|7-10-9----------|
D|7--10-9-9---10-9|------10-9---------|7--10-9-9---10-9|------10-9------|
A|----------------|-------------------|----------------|----------------|
E|----------------|-------------------|----------------|----------------|

e|----------------|-------------------|----------------|----------------7-|
B|----------------|----------10-9-----|----------------|------------9-10--|
G|---------9-8----|7-10-9--------10-9-|---------9-8----|7-10-9-7----------|
D|7--10-9-9---10-9|------10-9---------|7--10-9-9---10-9|--------10-9------|
A|----------------|-------------------|----------------|------------------|
E|----------------|-------------------|----------------|------------------|

e|----------------------------------|--------------------------------------|
B|----------------------------------|--------------------------------------|
G|------7-9-10-9-7-9-10-----7-9-10-9|------7-9-10-9-7-9-10---101010---10109|
D|7-9-10----------------9-10--------|7-9-10---------------777------777-----|
A|----------------------------------|--------------------------------------|
E|----------------------------------|--------------------------------------|

e|----------------------------------|---------------------------------|
B|----------------------------------|---------------------------------|
G|------7-9-10-9-7-9-10-----7-9-10-9|7-9-10-9-7-9-7-------------------|
D|7-9-10----------------9-10--------|--------------10-9-7-10-9-8-7----|
A|----------------------------------|---------------------10-9-8-7----|
E|----------------------------------|----------------------8-7-6-5----|
            
Submit corrections


        Diablo Rojo lessons Hard to play? Try these video lessons and learn fast Diablo Rojo lessons
        
↑ Back to top | Tablatures and chords for acoustic guitar and electric guitar, ukulele, drums are parodies/interpretations of the original songs. You may use it for private study, scholarship, research or language learning purposes only