» » »

Rodrigo Y Gabriela - Sunday Neurosis Tabs

Artists:  A B C D E F G H I J K L M N O P Q R S T U V W X Y Z # 

Sunday Neurosis Tabs

(ver. 2) Click to play this song!
Rodrigo Y Gabriela
 Rating:
4.3/5 (20 votes)

 Sunday Neurosis lessons Tabs too difficult? Try these video lessons and learn fast
 
                
e||-----------------------|------------------------|----------------------|------------------------|
B||-----------------------|------------------------|----------------------|------------------------|
G|*-----7---7-------------|-----6---6--------------|-----1---1------------|-----4----4------2----2-|
D|*-----------------------|------------------------|----------------------|------------------------|
A||---7---7---------------|---7---7----------------|---2---2--------------|---5----5------4----4---|
E||-0---------------------|-0----------------------|-0--------------------|-0----0------0----0-----|

e|-----------------------|---------------------------|----------------------|--------------------------||
B|-----------------------|---------------------------|----------------------|--------------------------||
G|-----7---7-------------|------6-----6--------------|-----1---1------------|--------------------------*|
D|-----------------------|---------------------------|----------------------|-----2---2----------------*|
A|---7---7---------------|---7-----7-----------------|---2---2--------------|---2---2------------------||
E|-0---------------------|-0-------------------------|-0--------------------|-0---------0--------------||

e||-------------------------|---------------------------|-----------------------|------------------------||
B||-------------------------|---------------------------|-----------------------|------------------------||
G|*-------------------------|---------------------------|-----1---1------1---1--|-----4----4------2----2-*|
D|*-----12---12-----12---12-|-----11----11-----11----11-|-----------------------|------------------------*|
A||---7----7------7----7----|---7-----7------7-----7----|---2---2------2---2----|---5----5------4----4---||
E||-0-----------0-----------|-0------------0------------|-0----------0----------|-0----0------0----0-----||

e|-------------------------|---------------------------|-----------------------|----------------------------|
B|-------------------------|---------------------------|-----------------------|----------------------------|
G|-------------------------|---------------------------|-----1---1------1---1--|----------------------------|
D|-----12---12-----12---12-|-----11----11-----11----11-|-----------------------|-5-5-5-5-5-5-5-5-5-5-2------|
A|---7----7------7----7----|---7-----7------7-----7----|---2---2------2---2----|-5-5-5-5-5-5-5-5-5-5-2------|
E|-0-----------0-----------|-0------------0------------|-0----------0----------|-3-3-3-3-3-3-3-3-3-3-0------|

e|----------|---------------|--------------|-----------------||--------------|--------------||
B|----------|--------10-----|-3----2-3-----|-2---------------||-3----2-3-----|-2------------||
G|----------|-----12--------|-4--------4---|-2----2-4--------|*-4--------4---|-2----4-------*|
D|----------|---------------|--------------|--------2--------|*--------------|--------------*|
A|----------|---------------|--------------|-----------------||--------------|--------------||
E|----------|---------------|--------------|------------0----||--------------|---------0----||

e|----12-------------|---------------------|--------------------------------|-----------------------------|
B|-12----15--15b17---|---------------------|--------------------------------|-----------------------------|
G|-------------------|-14b15br14-12-14-12/-|----12----12----14b15br14-12----|-12-12-12h11-9-7/9-----------|
D|-------------------|---------------------|-14----14----14--------------14-|-----------------------------|
A|-------------------|---------------------|--------------------------------|-----------------------------|
E|-------------------|---------------------|--------------------------------|-----------------------------|

e|----12-------------|--------------------------|-------------------------|---------------------|
B|-12----15--15b17---|-15b17-15b17-15b17-15br17-|-------------------------|---------------------|
G|-------------------|--------------------------|-12h14-12h14-12h14-12h14-|-12-12-12h11-9-7/9---|
D|-------------------|--------------------------|-------------------------|---------------------|
A|-------------------|--------------------------|-------------------------|---------------------|
E|-------------------|--------------------------|-------------------------|---------------------|

e|-----------------------|-----------------------------|--------------------|-------------------------------|
B|----12/----------------|-----------------------------|----12/-------------|-------------------------------|
G|-14-------14-12-11-----|-12-14-11------12p11---------|-14-------14-12-----|-12-14-11----12-12-12p11-------|
D|-----------------------|---------------------12/14---|--------------------|-------------------------12/14-|
A|-----------------------|-----------------------------|--------------------|-------------------------------|
E|-----------------------|-----------------------------|--------------------|-------------------------------|

   3:43
e|----12-------------|--------------------------------------------------------------------------------------|
B|-12----15--15b17---|-15b17-15b17-15b17-15br17-15br17-15br17-15br17-15br17-15br17-15br17-15br17--15--------|
G|-------------------|-------------------------------------------------------------------------------14-----|
D|-------------------|--------------------------------------------------------------------------------------|
A|-------------------|--------------------------------------------------------------------------------------|
E|-------------------|--------------------------------------------------------------------------------------|

e|----------------|--------------------------------|--------------------------------|
B|----------------|--------------------------------|-----8-8p7-7-7-7----8p7---------|
G|-14-14-14p12----|-14-12-14-12-14-12-14-12--------|-7-9--------------------7-7/9---|
D|-------------14-|-------------------------14/----|--------------------------------|
A|----------------|--------------------------------|--------------------------------|
E|----------------|--------------------------------|--------------------------------|

e|---------------------|-------------------------|-----------------|------------------|
B|---7---7---7---7---7-|---7---7---7---7---7-----|---8---8---8---8-|---8---8---8---8--|
G|-7---7---7---7---7---|-7---7---7---7---7---7/9-|-9---9---9---9---|-9---9---9---9----|
D|---------------------|-------------------------|-----------------|------------------|
A|---------------------|-------------------------|-----------------|------------------|
E|---------------------|-------------------------|-----------------|------------------|

                                                                           x5   
e|--------------|--------------|--------------|--------------||--------------||
B|-3----2-3-----|-2------------|-3----2-3-----|-2------------||--------------||
G|-4--------4---|-2----4-------|-4--------4---|-2------------|*--------------*|
D|--------------|---------2----|--------------|---------2----|*---------2----*|
A|--------------|---------2----|--------------|---------2----||---------2----||
E|--------------|---------0----|--------------|------3--0----||------3--0----||            
Submit corrections


        Sunday Neurosis lessons Hard to play? Try these video lessons and learn fast Sunday Neurosis lessons
        
↑ Back to top | Tablatures and chords for acoustic guitar and electric guitar, ukulele, drums are parodies/interpretations of the original songs. You may use it for private study, scholarship, research or language learning purposes only