» » »

Rodrigo Y Gabriela - Juan Loco Tabs

Artists:  A B C D E F G H I J K L M N O P Q R S T U V W X Y Z # 

Juan Loco Tabs

(ver. 3) Click to play this song!
Rodrigo Y Gabriela
 Rating:
4/5 (4 votes)

 Juan Loco lessons Tabs too difficult? Try these video lessons and learn fast
 
                (Intro)
Noticed that the tabs for this song were way wrong.
This is what me and my guitar teacher figured out.
This is the first and main riff and the variations on the endings.

(Palm Mute)           -                  -                  >
E|-------------------------------------|------------------11------12---|
B|--------12--11-----14--11----11--14--|--------14-12-11----12--12-----|
G|------13-------13---------12---------|------12--------------13-------|
D|----13-------------------------------|----13-------------------------|
A|--11---------------------------------|--13---------------------------|
E|-------------------------------------|-------------------------------|

                      -                  -                  >
|-------------------------------------|-----------------11-------------|
|--------12--11-----14--11----11--14--|--------14-12-11---12---14-11---|
|------13-------13---------12---------|------12-------------13------12-|
|----13-------------------------------|----13--------------------------|
|--11---------------------------------|--13----------------------------|
|-------------------------------------|--------------------------------|

                     -                  -                  >
|-------------------------------------|------------------11------12----|
|--------12--11-----14--11----11--14--|--------14-12-11----12--12------|
|------13-------13---------12---------|------12--------------13--------|
|----13-------------------------------|----13--------------------------|
|--11---------------------------------|--13----------------------------|
|-------------------------------------|--------------------------------|

                     -                  -                  >
|-------------------------------------|-------------------------------------------------|
|--------12--11-----14--11----11--14--|--------14-12-11-12-11---11----------------------|
|------13-------13---------12---------|------12--------------13---13-12-11--------------|
|----13-------------------------------|----13-----------------------------14-13-11------|
|--11---------------------------------|--13---------------------------------------14-13-|
|-------------------------------------|-------------------------------------------------|


This is how the first variation goes. (this is played in little groups, just listen to the song)

(Palm Mute)           -                  -                  -               >
|-------------------------------------------------|--------------------------------|
|------12-11--------------12-11------11-----------|--------12-11--------------12---|
|----13-----13----------13---------12--13---------|------13-----13----------13-----|
|--13---------14---11-14---------13------13-11----|----13---------14---11-14-------|
|11----------------------------13-------------13--|--11----------------------------|
|-------------------------------------------------|--------------------------------|

--------------------|
11------11--11--11--|
-----12--13--13--13-|
---13---------------|
-13-----------------|
--------------------|

   -                  -                  -                  -               >
|---------------------------------------------------|-------------------------------------------|
|--------12-11--------------12-11------11-----------|--------12-11--------------12-11------11---|
|------13-----13----------13---------12--13---------|------13-----13----------13---------12--13-|
|----13---------14---11-14---------13------13-11----|----13---------14---11-14---------13-------|
|--11----------------------------13-------------13--|--11----------------------------13---------|
|---------------------------------------------------|-------------------------------------------|


The second variation goes like this,

(Palm Mute)      -            -          >
|----------------------------------------------|
|----------------------------------------------|
|------13-11-----11---------11-----------------|
|----13-----14-13--14-----11--14-13-11-14-13---|
|--11-------------------13---------------------|
|----------------------------------------------|


then it goes up and goes back to the main riff two times. After that we havent figured out.
            
Submit corrections


        Juan Loco lessons Hard to play? Try these video lessons and learn fast Juan Loco lessons
        
↑ Back to top | Tablatures and chords for acoustic guitar and electric guitar, ukulele, drums are parodies/interpretations of the original songs. You may use it for private study, scholarship, research or language learning purposes only