» » »

Rodrigo Y Gabriela - Juan Loco Tabs

Artists:  A B C D E F G H I J K L M N O P Q R S T U V W X Y Z # 

Juan Loco Tabs

(ver. 2) Click to play this song!
Rodrigo Y Gabriela
 Rating:
4.6/5 (9 votes)

 Juan Loco lessons Tabs too difficult? Try these video lessons and learn fast
 
                “Rodrigo y gabriela – Juan Loco”



This is how I play it so I hope you like it!Corrections and suggestions of any kind are 
make this tab complete a used some material from a “ABCtabs” user Lienj92. So, I hope 
don’t mind. A marked that part, and it stands beetween this signs **.


Intro

e|-------------------9-------9-|----------------------11----------11----|
B|------9--12-11-9-----9---9---|---------11-14-12-11-----12----12-------|
G|----8------------------9-----|------12--------------------13----------|
D|--9--------------------------|---13-----------------------------------|
A|-----------------------------|----------------------------------------|
E|-----------------------------|----------------------------------------|


e|-------------------9-------9-|----------------------11-------9---------|
B|------9--12-11-9-----9---9---|---------11-14-12-11-----12-------11-----|
G|----8------------------9-----|------12--------------------13--------12-|
D|--9--------------------------|---13------------------------------------|
A|-----------------------------|-----------------------------------------|
E|-----------------------------|-----------------------------------------|

e|-------------------9-------9-|----------------------11----------11----|
B|------9--12-11-9-----9---9---|---------11-14-12-11-----12----12-------|
G|----8------------------9-----|------12--------------------13----------|
D|--9--------------------------|---13-----------------------------------|
A|-----------------------------|----------------------------------------|
E|-----------------------------|----------------------------------------|

e|-------------------9-------9-|-------------------------------------------|
B|------9--12-11-9-----9---9---|---------11-14-12-11-12-11-9-11-9----------|
G|----8------------------9-----|------12---------------------------12-11-9-|
D|--9--------------------------|---13--------------------------------------|
A|-----------------------------|-------------------------------------------|
E|-----------------------------|-------------------------------------------|

e|------------|--------------------|------------------|-------------------------|
B|------------|-----9-12-11-9------|------11-12---11--|-----9--11--9------------|
G|-8-6-8------|---8-------------9--|----9-------------|---8------------8--------|
D|--------9-8-|-9------------------|-11---------------|-8-----------------11--8-|
A|------------|--------------------|------------------|-------------------------|
E|------------|--------------------|------------------|-------------------------|

e|--------------------|-----------------|-----------------|-----------------|
B|-----9--12-11-9-----|------11-12--11--|-----9-11-9-11-9-|-----9-12-11-9---|
G|---8--------------9-|----9------------|---8-------------|---8------------9|
D|-9------------------|-11--------------|-8---------------|-9---------------|
A|--------------------|-----------------|-----------------|-----------------|
E|--------------------|-----------------|-----------------|-----------------|

e|-----------------|------------------------|---------------------|
B|------11-12--11--|-----9-11--9------------|-----9-12-11-9-------|
G|----9------------|---8-----------8--------|---8--------------9--|
D|-11--------------|-8----------------11-8--|-9-------------------|
A|-----------------|------------------------|---------------------|
E|-----------------|------------------------|---------------------|

e|-----------------|-------------------|-----4--------------|------2--------------|
B|------11-12--11--|-----9-11-9--------|---4----7-5-4--7--5-|----2----5-4-2--5—4--|
G|----9------------|---8---------9~----|-4------------------|--3------------------|
D|-11--------------|-8-----------------|--------------------|---------------------|
A|-----------------|-------------------|--------------------|---------------------|
E|-----------------|-------------------|--------------------|---------------------|

e|-----0------0--------|------0------0--------|------0-------0----------|
B|---0------0----------|----0------0----------|----0-------0------------|
G|-9------8------6-8-9-|-11------9-----8-9-11-|-13------11------9-11-13-|
D|---------------------|----------------------|-------------------------|
A|---------------------|----------------------|-------------------------|
E|---------------------|----------------------|-------------------------|

e|----11---------------------|
B|-12-----14-12--11----------|
G|-------------------13-12~--|
D|---------------------------|
A|---------------------------|
E|---------------------------|

e|-------------------9-------9-|----------------------11----------11----|
B|------9--12-11-9-----9---9---|---------11-14-12-11-----12----12-------|
G|----8------------------9-----|------12--------------------13----------|
D|--9--------------------------|---13-----------------------------------|
A|-----------------------------|----------------------------------------|
E|-----------------------------|----------------------------------------|


e|-------------------9-------9-|----------------------11-------9---------|
B|------9--12-11-9-----9---9---|---------11-14-12-11-----12-------11-----|
G|----8------------------9-----|------12--------------------13--------12-|
D|--9--------------------------|---13------------------------------------|
A|-----------------------------|-----------------------------------------|
E|-----------------------------|-----------------------------------------|

e|-------------------9-------9-|----------------------11----------11----|
B|------9--12-11-9-----9---9---|---------11-14-12-11-----12----12-------|
G|----8------------------9-----|------12--------------------13----------|
D|--9--------------------------|---13-----------------------------------|
A|-----------------------------|----------------------------------------|
E|-----------------------------|----------------------------------------|

e|-------------------9-------9-|----------------------------|
B|------9--12-11-9-----9---9---|---------11-14-12-11--------|
G|----8------------------9-----|------12--------------13----|
D|--9--------------------------|---13-----------------------|
A|-----------------------------|----------------------------|
E|-----------------------------|----------------------------|

Part 2

e|--11------11-12-12-------12-14-9----------11-11---------11-11-------11-12|
B|----12--12---------14--14--------11--11-14-----12--12-14-----12---12-----|
G|------13-------------13------------12------------13-------------13-------|
D|-------------------------------------------------------------------------|
A|-------------------------------------------------------------------------|
E|-------------------------------------------------------------------------|

e|-12-12--------12-14-9-------------11-11---------------|11------11-12-12—|
B|------14---14---------11----11-14------12----------14-|--12—-12---------|
G|---------13--------------12---------------13-11-13----|----13-----------|
D|------------------------------------------------------|-----------------|
A|------------------------------------------------------|-----------------|
E|------------------------------------------------------|-----------------|

e|-------12-14-9---------11-11----------11-11------11-12-12------12-14-9----|
B|-14--14-------11--11-14------12--12-14-----12--12--------14--14-------11--|
G|---13-----------12-------------13------------13------------13-----------12|
D|--------------------------------------------------------------------------|
A|--------------------------------------------------------------------------|
E|--------------------------------------------------------------------------|

e|-----11------------|-11------11-12-12------12-14-9----------11-11---------|
B|11-14--12--------14|---12--12--------14--14-------11---11-14-----12—-12-14|
G|---------13-11-13--|-----13------------13------------12------------13-----|
D|-------------------|------------------------------------------------------|
A|-------------------|------------------------------------------------------|
E|-------------------|------------------------------------------------------|


e|11-11------11-12-12------12-14-9----------11-11-------------|11------11-12|
B|-----12--12--------14--14-------11---11-14-----12--------14-|--12--12-----|
G|-------13------------13------------12------------13-11-13---|----13-------|
D|------------------------------------------------------------|-------------|
A|------------------------------------------------------------|-------------|
E|------------------------------------------------------------|-------------|

e|12------12-14-9---------11-11------11-11------11-12-12------12-14-15------|
B|--14--14-------11--11-14-----12--12-----12--12--------14--14--------14--16|
G|----13-----------12------------13---------13------------13------------15--|
D|--------------------------------------------------------------------------|
A|--------------------------------------------------------------------------|
E|--------------------------------------------------------------------------|

e|15-18-16----------|**-----------------------------------------------------|
B|----------16------|-------------------------------------------------------|
G|--------------16--|-------------------------------------------------------|
D|------------------|--11/9-8-----------------------------------------------|
A|------------------|-------------6---------6------6-7/9-7-6----------------|
E|------------------|-----------7----9-6--7---9—4-7----------9-11-7-9-6-7-4-|

e|----------------------------------------------------------|
B|--------4-2-------4-2----------/7-5-4-2-4---2----0--------|
G|----3-4------3--4------1-3-4--------------4----3----1~----|
D|----------------------------------------------------------|
A|-6--------------------------------------------------------|
E|--------------------------------------------------------**|

e|---------------------------------------------|----------------------------|
B|---------------------------------------------|----------------------------|
G|----4---6p4-----------------4---6p4----------|-----4---6-4-----------4----|
D|-4-6--6-----6--6-6-6----4-6---6-----6--6-6-6-|-4-6---6-----6-4---4-6---6-4|
A|---------------------------------------------|-----------------6----------|
E|---------------------------------------------|----------------------------|


e|-----------------------6-7-6-7-6h7p6--|----6-7-6-7-6-7-6h7p6---|
B|----------------------7--------------7|--7-------------------7-|
G|--------------------8-----------------|-8----------------------|
D|----------------6-9-------------------|------------------------|
A|-6-4-4-------6h9----------------------|------------------------|
E|-------7-4-7--------------------------|------------------------|

e|-----6-7-6-9-7-6---11-9------12-11-----14-12-11--------------|
B|---7--------------------12---------14-----------14-12-11-----|
G|-8--------------------------------------------------------13-|
D|-------------------------------------------------------------|
A|-------------------------------------------------------------|
E|-------------------------------------------------------------|


e|-----11-14-12-11-11h12p11----11-12------11----------11|---11-10--9----|
B|---12---------------------14-------14-14---14-12-11---|-99--9------12-|
G|-13---------------------------------------------------|---------------|
D|------------------------------------------------------|---------------|
A|------------------------------------------------------|---------------|
E|------------------------------------------------------|---------------|


e|-----------7----|-11--12—-12/14--12--11---9--11—11/12--11-|
B|-9-7---7-9---9--|-x---x---x--x---x---x----x--x---x-x---x--|
G|-----8----------|-8---9---9/-11--9---8----6--8---8/9---8--|
D|----------------|-----------------------------------------|
A|----------------|-----------------------------------------|
E|----------------|-----------------------------------------|

e|-11-9-----9--------7-6-----------------------------|
B|------12----12-11------9-7-6-----------------------|
G|-----------------------------9-8-6---------4--4--4-|
D|-----------------------------------9-8-6---6--6--6-|
A|-------------------------------------------6—-6--6-|
E|-------------------------------------------4--4--4-|

e|-------------------9-------9-|----------------------11----------11----|
B|------9--12-11-9-----9---9---|---------11-14-12-11-----12----12-------|
G|----8------------------9-----|------12--------------------13----------|
D|--9--------------------------|---13-----------------------------------|
A|-----------------------------|----------------------------------------|
E|-----------------------------|----------------------------------------|


e|-------------------9-------9-|---------------------------------|
B|------9--12-11-9-----9---9---|---------11-14-12-11----9-----11-|
G|----8------------------9-----|------12-------------------------|
D|--9--------------------------|---13----------------------------|
A|-----------------------------|---------------------------------|
E|-----------------------------|---------------------------------|




e|-------------------9-------9-|----------------------11----------11----|
B|------9--12-11-9-----9---9---|---------11-14-12-11-----12----12-------|
G|----8------------------9-----|------12--------------------13----------|
D|--9--------------------------|---13-----------------------------------|
A|-----------------------------|----------------------------------------|
E|-----------------------------|----------------------------------------|


e|-------------------9-------9-|-------------------------------------------|
B|------9--12-11-9-----9---9---|---------11-14-12-11-----------------------|
G|----8------------------9-----|------12--------------13-12-11h12/11/10/9/8|
D|--9--------------------------|---13--------------------------------------|
A|-----------------------------|-------------------------------------------|
E|-----------------------------|-------------------------------------------|


e|--------------------|------------------|-------------------------|
B|-----9-12-11-9------|------11-12---11--|-----9--11--9------------|
G|---8-------------9--|----9-------------|---8------------8--------|
D|-9------------------|-11---------------|-8-----------------11--8-|
A|--------------------|------------------|-------------------------|
E|--------------------|------------------|-------------------------|


e|--------------------|-----------------|-----------------|-----------------|
B|-----9--12-11-9-----|------11-12--11--|-----9-11-9-11-9-|-----9-12-11-9---|
G|---8--------------9-|----9------------|---8-------------|---8------------9|
D|-9------------------|-11--------------|-8---------------|-9---------------|
A|--------------------|-----------------|-----------------|-----------------|
E|--------------------|-----------------|-----------------|-----------------|


e|-----------------|------------------------|---------------------|
B|------11-12--11--|-----9-11--9------------|-----9-12-11-9-------|
G|----9------------|---8-----------8--------|---8--------------9--|
D|-11--------------|-8----------------11-8--|-9-------------------|
A|-----------------|------------------------|---------------------|
E|-----------------|------------------------|---------------------|

e|-----------------|-------------------|-----4--------------|------2--------------|
B|------11-12--11--|-----9-11-9--------|---4----7-5-4--7--5-|----2----5-4-2--5—4--|
G|----9------------|---8---------9~----|-4------------------|--3------------------|
D|-11--------------|-8-----------------|--------------------|---------------------|
A|-----------------|-------------------|--------------------|---------------------|
E|-----------------|-------------------|--------------------|---------------------|

e|-----0------0--------|------0------0--------|------0-------0----------|
B|---0------0----------|----0------0----------|----0-------0------------|
G|-9------8------6-8-9-|-11------9-----8-9-11-|-13------11------9-11-13-|
D|---------------------|----------------------|-------------------------|
A|---------------------|----------------------|-------------------------|
E|---------------------|----------------------|-------------------------|


e|----11-----------------6---------------------------|
B|-12----14-12--11-----8---9-8-----------------------|
G|----------------13-----------9-8----8-6------------|
D|----------------------------------9------9-8-6-5~--|
A|---------------------------------------------------|
E|---------------------------------------------------|

e|-------------------------------------------|------------------------------|
B|-------------------------------------------|------------------------------|
G|--4----------------------------------------|-4----------------2-2—-x--3-3-|
D|--6-x----------------------4-6-4-----------|-6-x--------------4-4--x--5-5-|   x 2
A|--6-x-6---5-4--------4-5-6-------6-5-4-----|-6-x-6--5-4-------4-4--x--5-5-|
E|--4-x---------7---4-7------------------7-4-|-4-x----------7---2-2--x--3-3-|


e|-------------------------------------------|
B|-------------------------------------------|
G|--4----------------------------------------|
D|--6-x----------------------4-6-4-----------|     x 3
A|--6-x-6---5-4--------4-5-6-------6-5-4-----|
E|--4-x---------7---4-7------------------7-4-|


e|-------------------------8-|---------------------------9-|---------------|
B|------------------8----6---|------------------9------7---|--- -----------|
G|-----------8----6----4-----|-----------9-----7----5------|------------10-|
D|----8----6----4------------|----9----7-----5-------------|----10----8----|
A|--6----4-------------------|--7----5---------------------|--8-----6------|
E|4--------------------------|5----------------------------|6--------------|


e|------------10-|----------------------------11-|
B|----10----8----|--------------------11----9----|
G|--8-----6------|------------11----9-----7------|
D|6--------------|----11----9-----7--------------|
A|---------------|--9-----7----------------------|
E|---------------|7------------------------------|

e|-------------------9-------9-|----------------------11----------11----|
B|------9--12-11-9-----9---9---|---------11-14-12-11-----12----12-------|
G|----8------------------9-----|------12--------------------13----------|
D|--9--------------------------|---13-----------------------------------|
A|-----------------------------|----------------------------------------|
E|-----------------------------|----------------------------------------|


e|-------------------9-------9-|----------------------11-------9---------|
B|------9--12-11-9-----9---9---|---------11-14-12-11-----12-------11-----|
G|----8------------------9-----|------12--------------------13--------12-|
D|--9--------------------------|---13------------------------------------|
A|-----------------------------|-----------------------------------------|
E|-----------------------------|-----------------------------------------|


e|-------------------9-------9-|----------------------11----------11----|
B|------9--12-11-9-----9---9---|---------11-14-12-11-----12----12-------|
G|----8------------------9-----|------12--------------------13----------|
D|--9--------------------------|---13-----------------------------------|
A|-----------------------------|----------------------------------------|
E|-----------------------------|----------------------------------------|


e|-------------------9-------9-|-------------------------------------------|
B|------9--12-11-9-----9---9---|---------11-14-12-11-----------------------|
G|----8------------------9-----|------12--------------13-12-11h12/11/10/9/8|
D|--9--------------------------|---13--------------------------------------|
A|-----------------------------|-------------------------------------------|
E|-----------------------------|-------------------------------------------|


e|----------------------------------------------4~--------|
B|-9/-------------------------------------------4~--------|
G|-8/----------------------------2--2-----3-----4~--------|
D|-9/-------6/------6/-----------4--4-----5-----6~--------|
A|----------6/------6/-----------4--4-----5-----6~--------|
E|----------4/------4/-----------2--2-----3-----4~--------|

The end!
            
Submit corrections


        Juan Loco lessons Hard to play? Try these video lessons and learn fast Juan Loco lessons
        
↑ Back to top | Tablatures and chords for acoustic guitar and electric guitar, ukulele, drums are parodies/interpretations of the original songs. You may use it for private study, scholarship, research or language learning purposes only