» » »

Rivers Cuomo - Lover In The Snow Tabs

Artists:  A B C D E F G H I J K L M N O P Q R S T U V W X Y Z # 

Lover In The Snow Tabs

(ver. 3) Click to play this song!
Rivers Cuomo
 Rating:
3.6/5 (5 votes)

 Lover In The Snow lessons Tabs too difficult? Try these video lessons and learn fast
 
                OK, this song is tuned down a 1/2 step.
The lyrics are below.

Part 1:
E||------------------------|------------------------|------------------------|
B||------------------------|------------------------|------------------------|
G||------------------------|------------------------|--7----7----7--7--x--7--|
D||--7----7----7--7--x--6--|-----6----6----6--6--6--|--7----7----7--7--x--6--|
A||--7----7----7--7--x--7--|-----7----7----7--7--7--|--5----5----5--5--x--5--|
E||--5----5----5--5--x--5--|-----5----5----5--5--5--|------------------------|
               I wanna know...

------------------------|
------------------------|
-----7----7----7--7--7--|
-----6----6----6--6--6--|
-----5----5----5--5--5--|
------------------------|

Part 2:
E||------------------------|------------------------|------------------------|
B||------------------------|------------------------|------------------------|
G||------------------------|------------------------|------------------------|
D||--4----4----4--4--x--4--|-----4----4----4--4--4--|--4----4----4--4--x--4--|
A||--4----4----4--4--x--4--|-----4----4----4--4--4--|--4----4----4--4--x--4--|
E||--2----2----2--2--x--2--|-----2----2----2--2--2--|--0----0----0--0--x--0--|
  ...you                                    Lying with him...

------------------------|------------------------|------------------------|
------------------------|------------------------|------------------------|
------------------------|--4----4----4--4--x--4--|-----4----4----4--4--4--|
-----4----4----4--4--4--|--4----4----4--4--x--4--|-----4----4----4--4--4--|
-----4----4----4--4--4--|--6----6----6--6--x--6--|-----6----6----6--6--6--|
-----0----0----0--0--0--|------------------------|------------------------|

------------------------|-------------------------|
------------------------|-------------------------|
--4----4----4--4--x-----|-----------9----9--9--x--|
--4----4----4--4--x--9--|--9--9--x--9----9--9--x--| (Back to the first riff)
--5----5----5--5--x--7--|--9--7--x--7----7--7--x--|
---------------------7--|--7--7--x----------------|

Part 3: 

E||------------------------|------------------------|------------------------|
B||------------------------|------------------------|------------------------|
G||------------------------|------------------------|------------------------|
D||--3----3----3--3--x--3--|-----3----3----3--3--3--|--3----3----3--3--x--3--|
A||--3----3----3--3--x--3--|-----3----3----3--3--3--|--3----3----3--3--x--3--|
E||--1----1----1--1--x--1--|-----1----1----1--1--1--|--1----1----1--1--x--1--|
                         Letting him...

------------------------|------------------------|------------------------|
------------------------|------------------------|------------------------|
------------------------|------------------------|------------------------|
-----3----3----3--3--3--|--7----7----7--7--x--6--|-----6----6----6--6--6--|
-----3----3----3--3--3--|--7----7----7--7--x--7--|-----7----7----7--7--7--|
-----1----1----1--1--1--|--5----5----5--5--x--5--|-----5----5----5--5--5--|

------------------------|------------------------|
------------------------|------------------------|
------------------------|------------------------|
--3----3----3--3--x--3--|-----3----3----3--3--3--|
--3----3----3--3--x--3--|-----3----3----3--3--3--|
--1----1----1--1--x--1--|-----1----1----1--1--1--|

------------------------|------------------------|------------------------|
------------------------|------------------------|------------------------|
------------------------|------------------------|------------------------|
--3----3----3--3--x--3--|-----3----3----3--3--3--|--7----7----7--7--x--6--|
--3----3----3--3--x--3--|-----3----3----3--3--3--|--7----7----7--7--x--7--|
--1----1----1--1--x--1--|-----1----1----1--1--1--|--5----5----5--5--x--5--|

------------------------|------------------------|------------------------|
------------------------|------------------------|------------------------|
------------------------|--6----6----6--6--x--6--|-----6----6----6--6--6--|
-----6----6----6--6--6--|--6----6----6--6--x--6--|-----6----6----6--6--6--|
-----7----7----7--7--7--|--7----7----7--7--x--7--|-----7----7----7--7--7--|
-----5----5----5--5--5--|------------------------|------------------------|

------------------------|------------------------|------------------------|
------------------------|------------------------|------------------------|
------------------------|------------------------|--6----6----6--6--x--6--|
--7----7----7--7--x--6--|-----6----6----6--6--6--|--6----6----6--6--x--6--|
--7----7----7--7--x--7--|-----7----7----7--7--7--|--7----7----7--7--x--7--|
--5----5----5--5--x--5--|-----5----5----5--5--5--|------------------------|

------------------------||
------------------------||
-----6----6----6--6--6--||
-----6----6----6--6--6--|| (Back to part one on "Lover in the snow")
-----7----7----7--7--7--||
------------------------||

Lyrics:

I wanna know
What were you doing with my friend?
Out in the eve
Deep in the shaded glim I saw you,
Lying with him, down in the snow,
Letting him do all of the things that he wants to.

What does he do?
What does he do to you that's so nice?
And how does it feel
When he takes your hand and kisses it twice?
Lying with you, down in the snow, letting him do
All of the things he wants to.

(Come on come on come on I feel it)
So laugh and play around
(Come on come on come on I see it)
Fall and hit the ground
(Come on come on come on I feel it)
You think I’ll never know
(Come on come on come on I see it)
Your lover in the snow.

Letting him fill you up with his wine
Letting him flatter you with his line
Letting him put you down in the snow
Taking him in and letting me goooo
(Come on come on come on)
It hurts for me to see you so
(Come on come on come on)
And I can't take you back no more
(Come on come on come on)
Lover in the snow.

(Come on come on come on I feel it)

I wanna know
What were you doing with my friend?
Out in the eve
Deep in the shady glim I saw you
(Come on come on come on I feel it)
Laugh and play around
(Come on come on come on I feel it)
You fall and hit the ground
(Come on come on come on I feel it)
Your lover in the snow.


Letting him fill you up with his wine
Letting him flatter you with his line
Letting him put you down in the snow
Taking him in and letting me goooo
(Come on come on come on)
It hurts for me to see you so
(Come on come on come on)
And I can't take you back no more
(Come on come on come on)
Lover in the snow
(Come on come on come on I feel it)
You laugh and play around
(Come on come on come on I feel it)
You fall and hit the ground
(Come on come on come on I feel it)
You think I’ll never know
(Come on come on come on I feel it)
Your lover in the snow.
            
Submit corrections


        Lover In The Snow lessons Hard to play? Try these video lessons and learn fast Lover In The Snow lessons
        
↑ Back to top | Tablatures and chords for acoustic guitar and electric guitar, ukulele, drums are parodies/interpretations of the original songs. You may use it for private study, scholarship, research or language learning purposes only