» » »

Righteous Brothers - Unchained Melody Tabs

Artists:  A B C D E F G H I J K L M N O P Q R S T U V W X Y Z # 

Unchained Melody Tabs

(ver. 3) Click to play this song!
Righteous Brothers
 Rating:
4.3/5 (19 votes)

 Unchained Melody lessons Tabs too difficult? Try these video lessons and learn fast
 
                [Intro]
   C                                                   Am
E|-------------------------|-------------------------|-------------------------|-------------------------|
B|-------------1-----------|-------------1-----------|-------------1-----------|-------------1-----------|
G|---------0-------0-------|---------0-------0-------|---------2-------2-------|---------2-------2-------|
D|-----2---------------2---|-----2---------------2---|-----2---------------2---|-----2---------------2---|
A|-3-----------------------|-3-----------------------|-0-----------------------|-0-----------------------|
E|-------------------------|-------------------------|-------------------------|-------------------------|

   F                                                   G
E|-------------0-----------|-------------0-----------|-------------------------|-------------------------|
B|---------1-------1-------|---------1-------1-------|-------------0-----------|-------------0-----------|
G|-----2---------------2---|-----2---------------2---|---------0-------0-------|---------0-------0-------|
D|-3-----------------------|-3-----------------------|-----0---------------0---|-----0---------------0---|
A|-------------------------|-------------------------|-------------------------|-------------------------|
E|-------------------------|-------------------------|-3-----------------------|-3-----------------------|

[Verse1]
   C                                                   Am
E|-------------------------|-------------------------|-------------------------|-------------------------|
B|-1-----------1-----------|-------------1-------3---|-1-----------1-----------|-------------1-------3---|
G|---------0-------0-------|---------0-------0-------|---------2-------2-------|---------2-------2-------|
D|-----2---------------2---|-----2---------------2---|-----2---------------2---|-----2---------------2---|
A|-3-----------------------|-3-----------------------|-0-----------------------|-0-----------------------|
E|-------------------------|-------------------------|-------------------------|-------------------------|

   F                                                   G
E|-------------0-----------|-------------0-----------|-------------------------|-------------0-----------|
B|-1---------------1-------|---------1-------1-------|-------------0-----------|-------------------------|
G|---------2-----------2---|-----2---------------2---|-0-------0-------0-------|---------0-------0-------|
D|-----3-------------------|-------------3-----------|-----0---------------0---|-----0---------------0---|
A|-------------------------|-------------------------|-------------------------|-------------------------|
E|-1-----------------------|-1-----------------------|-3-----------------------|-3-----------------------|

   C                                                   Am
E|-------------------------|-------------------------|-------------------------|----------------------|
B|-1-----------1-----------|-------------1-------3---|-1-----------1-----------|----------------------|
G|---------0-------0-------|---------0-------0-------|---------2-------2-------|---------2------------|
D|-----2---------------2---|-----2---------------2---|-----2---------------2---|-----2-------2----3---|
A|-3-----------------------|-3-----------------------|-0-----------------------|-0-----------0--------|
E|-------------------------|-------------------------|-------------------------|----------------------|

   G
E|-------------------------|-------------------------|-------------------------|-------------------------|
B|-------------0-----------|-------------0-----------|-------------0-----------|---------0-----------0---|
G|-0-------0-------0-------|---------0-------0-------|---------0-------0-------|-----0-----------0-------|
D|-----0---------------0---|-----0---------------0---|-----0---------------0---|-0-----------3-----------|
A|-------------------------|-2-----------------------|-------------2-----------|-------------------------|
E|-3-----------------------|-------------------------|-3-----------------------|-------------------------|

[Verse2]
   C                                                   Am
E|-------------------------|-------------------------|-------------------------|-------------------------|
B|-1-----------1-----------|-------------1-------3---|-1-----------1-----------|-------------1-------3---|
G|---------0-------0-------|---------0-------0-------|---------2-------2-------|---------2-------2-------|
D|-----2---------------2---|-----2---------------2---|-----2---------------2---|-----2---------------2---|
A|-3-----------------------|-3-----------------------|-0-----------------------|-0-----------------------|
E|-------------------------|-------------------------|-------------------------|-------------------------|

   F                                                   G
E|-------------0-----------|-------------0--h1--p0---|-------------------------|-------------0-----------|
B|-1---------------1-------|---------1---------------|-------------0-----------|-------------------------|
G|---------2-----------2---|-----2-------------------|-0-------0-------0-------|---------0-------0-------|
D|-----3-------------------|-------------3-----------|-----0---------------0---|-----0---------------0---|
A|-------------------------|-------------------------|-------------------------|-------------------------|
E|-1-----------------------|-1-----------------------|-3-----------------------|-3-----------------------|

   C                                                   Am
E|-------------------------|-------------------------|-------------------------|-------------------------|
B|-1-----------1-----------|-------------1-------3---|-1-----------1-----------|-------------3-----------|
G|---------0-------0-------|---------0-------0-------|---------2-------2-------|---------2-------2-------|
D|-----2---------------2---|-----2---------------2---|-----2---------------2---|-----2---------------2---|
A|-3-----------------------|-3-----------------------|-0-----------------------|-0-----------------------|
E|-------------------------|-------------------------|-------------------------|-------------------------|

   G
E|-3-----------3-----------|-------------3-----------|-7-----------7------p5---|-5--\3-------3--\1-------|
B|-------------------------|-------------------------|-------------------------|-------------------------|
G|---------0-------0-------|---------0-------0-------|---------0-------0-------|---------0-----------0---|
D|-----0---------------0---|-----0---------------0---|-----0-------------------|-------------0-----------|
A|-------------------------|-2-----------------------|-------------------------|-------------------------|
E|-3-----------------------|-------------------------|-7-----------------------|-5-----------------------|

   C                                                   Am                        Em
E|-0-----------------------|-------------------------|-------------------------|-------------------------|
B|---------------------1---|---------------------3---|-1-----------------------|---------------------0---|
G|---------0---------------|-0-------0---------------|---------2-----------2---|-0-----------------------|
D|-----2-----------2-------|-----0-----------0-------|-----2-----------2-------|---------2---------------|
A|-3-----------3-----------|-------------2-----------|-0-----------0-----------|-----2-----------2-------|
E|-------------------------|-3-----------------------|-------------------------|-0-----------0-----------|

   F                         G                         C                         C7
E|-------------------------|-----------------0--h1---|-3-----------------------|-------------------------|
B|---------1---------------|---------0---3-----------|-------------1-----------|-1-----------1-----------|
G|-2-------------------2---|-0-----------------------|---------0-------0-------|---------3-------3-------|
D|-----3-----------3-------|-----0-------------------|-----2---------------2---|-----2---------------2---|
A|-------------------------|-------------2-----------|-3-----------------------|-3-----------------------|
E|-1-----------1-----------|-3-----------------------|-------------------------|-------------------------|

[Bridge]  (2x)
   F                         G                         F                         Eb
E|---------------------0---|-----------------0-------|-------------------------|-------------------------|
B|---------1---------------|-3-------------------3---|-1-----------------------|-------------------------|
G|-2---------------2-------|---------0---------------|---------2-----------2---|-0-----------------------|
D|-----3-------------------|-----0-------------------|-----3-----------3-------|---------1-----------1---|
A|-------------0-----------|-------------2-----------|-------------0-----------|-----2-----------2-------|
E|-1-----------------------|-3-----------------------|-1-----------------------|-3-----------3-----------|

   F                         G                         C                         C7
E|-------------------------|-----------------0-------|-0--h3-------------------|-------------------------|
B|-1-----------------------|-3-------------------3---|-------------1-----------|-------------1-----------|
G|---------2-----------2---|---------0---------------|---------0-------0-------|---------3-------3-------|
D|-----3-----------3-------|-----0-------------------|---------------------2---|-----2---------------2---|
A|-------------0-----------|-------------2-----------|-3-----------------------|-3-----------------------|
E|-1-----------------------|-3-----------------------|-------------------------|-------------------------|

[Verse3]
   C                                                   Am
E|-------------------------|-------------------------|-------------------------|-------------------------|
B|-1-----------1-----------|-------------1-------3---|-1-----------1-----------|-------------1-------3---|
G|---------0-------0-------|---------0-------0-------|---------2-------2-------|---------2-------2-------|
D|-----2---------------2---|-----2---------------2---|-----2---------------2---|-----2---------------2---|
A|-3-----------------------|-3-----------------------|-0-----------------------|-0-----------------------|
E|-------------------------|-------------------------|-------------------------|-------------------------|

   F                                                   G
E|-------------0-----------|-------------0--h1--p0---|-------------------------|-------------0-----------|
B|-1---------------1-------|---------1---------------|-------------0-----------|-------------------------|
G|---------2-----------2---|-----2-------------------|-0-------0-------0-------|---------0-------0-------|
D|-----3-------------------|-------------3-----------|-----0---------------0---|-----0---------------0---|
A|-------------------------|-------------------------|-------------------------|-------------------------|
E|-1-----------------------|-1-----------------------|-3-----------------------|-3-----------------------|

   C                                                   Am
E|-------------------------|-------------------------|-------------------------|-------------------------|
B|-1-----------1-----------|-------------1-------3---|-1-----------1-----------|-------------1-----------|
G|---------0-------0-------|---------0-------0-------|---------2-------2-------|---------2-------2-------|
D|-----2---------------2---|-----2---------------2---|-----2---------------2---|-----2---------------2---|
A|-3-----------------------|-3-----------------------|-0-----------------------|-0-----------------------|
E|-------------------------|-------------------------|-------------------------|-------------------------|

   G
E|-3-----------------------|-------------3-----------|-7-----------7-----------|-------------5--h7--p5---|
B|-------------0-----------|-------------------------|-------------------------|-------------------------|
G|---------0-------0-------|---------0-------0-------|---------0-------0-------|---------0---------------|
D|-----0---------------0---|-----0---------------0---|-----0---------------0---|-----0-------0-----------|
A|-------------------------|-2-----------------------|-------------------------|-------------------------|
E|-3-----------------------|-------------------------|-7-----------------------|-7-----------------------|

   C                                                   Am                        Em
E|-3------------------p0---|---------------------0---|-3------------------p0---|---------------------0---|
B|-------------1-----------|-1-----------------------|-------------1-----------|-0-----------------------|
G|---------0-------0-------|---------0---------------|---------2-------2-------|-------------0-----------|
D|-----2---------------2---|-----2-----------2-------|-----2---------------2---|---------2-------2-------|
A|-3-----------------------|-------------------------|-0-----------------------|-----2---------------2---|
E|-------------------------|-3-----------3-----------|-------------------------|-0-----------------------|

   F                         G                         C
E|-1-------------------1---|-3-------------------0---|-------------------------|-3-----------------------|
B|-------------1-----------|-------------0-----------|-1-----------1-----------|-------------1-----------|
G|---------2-------2-------|---------0-------0-------|---------0-------0-------|---------0-------0-------|
D|-----3---------------3---|-----0---------------0---|-----2---------------2---|-----2---------------2---|
A|-------------------------|-------------------------|-3-----------------------|-------------------------|
E|-1-----------------------|-3-----------------------|-------------------------|-3-----------------------|

[Outro]
   C bar                     a
E|-8-----------------------|-8----------|
B|-------------8-----------|-8----------|
G|---------9-------9-------|-9----------|
D|-----10--------------10--|-10---------|
A|-------------------------|-10---------|
E|-8-----------------------|-8----------|

            
Submit corrections


        Unchained Melody lessons Hard to play? Try these video lessons and learn fast Unchained Melody lessons
        
↑ Back to top | Tablatures and chords for acoustic guitar and electric guitar, ukulele, drums are parodies/interpretations of the original songs. You may use it for private study, scholarship, research or language learning purposes only