» » »

Righteous Brothers - Unchained Melody Bass

Artists:  A B C D E F G H I J K L M N O P Q R S T U V W X Y Z # 

Unchained Melody Bass

(ver. 1) Click to play this song!
Righteous Brothers
 Rating:
4/5 (4 votes)

 Unchained Melody lessons Tabs too difficult? Try these video lessons and learn fast
 
                rigtheous_brothers/uncahined_melody.btab

Basstab by Jan Bjorklund, Finland; 
You are welcome to request for basstabs!
Bienvenidos a pedirme transcripciones para el bajo!


TablEdited by Jan Bjorklund
Tuning : E A D G 	Time Signature: 6/8

 |           |            |           |            |           |            
|------------------------|------------------------|------------------------|
|------------------------|------------------------|------------------------|
|3-------------------3---|3-----------3-----------|0-------------------0---|
|------------------------|------------------------|------------------------|

 |           |            |           |            |           |            
|------------------------|------------------------|------------------------|
|------------------------|------------------------|------------------------|
|0-----------0-----------|------------------------|------------------------|
|------------------------|1-------------------1---|1-----------1-----------|

 |           |            |           |            |           |            
|------------------------|------------------------|------------------------|
|------------------------|------------------------|------------------------|
|------------------------|------------------------|3-------------------3---|
|3-------------------3---|3-----------3-----------|------------------------|

 |           |            |           |            |           |            
|------------------------|------------------------|------------------------|
|------------------------|------------------------|------------------------|
|3-----------3-----------|0-------------------0---|0-----------0-----------|
|------------------------|------------------------|------------------------|

 |           |            |           |            |           |            
|------------------------|------------------------|------------------------|
|------------------------|------------------------|------------------------|
|------------------------|------------------------|------------------------|
|3-------------------3---|3-----------3-----------|3-------------------3---|

 |           |            |           |            |           |            
|------------------------|------------------------|------------------------|
|------------------------|------------------------|------------------------|
|------------------------|3-------------------3---|3-----------3-----------|
|3-----------3-----------|------------------------|------------------------|

 |           |            |           |            |           |            
|------------------------|------------------------|------------------------|
|------------------------|------------------------|------------------------|
|0-------------------0---|0-----------0-----------|------------------------|
|------------------------|------------------------|1-------------------1---|

 |           |            |           |            |           |            
|------------------------|------------------------|------------------------|
|------------------------|------------------------|------------------------|
|------------------------|------------------------|------------------------|
|1-----------1-----------|3-------------------3---|3-----------3-----------|

 |           |            |           |            |           |            
|------------------------|------------------------|------------------------|
|------------------------|------------------------|------------------------|
|3-------------------3---|3-----------3-----------|0-------------------0---|
|------------------------|------------------------|------------------------|

 |           |            |           |            |           |            
|------------------------|------------------------|------------------------|
|------------------------|------------------------|------------------------|
|0-----------0-----------|------------------------|------------------------|
|------------------------|3-------------------3---|3-----------3-----------|

 |           |            |           |            |           |            
|------------------------|------------------------|------------------------|
|------------------------|------------------------|------------------------|
|------------------------|------------------------|3-------------------3---|
|3-------------------3---|3-----------3-----------|------------------------|

 |           |            |           |            |           |            
|------------------------|------------------------|------------------------|
|------------------------|------------------------|------------------------|
|3-----------3-----------|------------------------|------------------------|
|------------------------|3-------------------3---|3-----------3-----------|

 |           |            |           |            |           |            
|------------------------|------------------------|------------------------|
|------------------------|------------------------|------------------------|
|0-------------------0---|0-----------0-----------|------------------------|
|------------------------|------------------------|0-------------------0---|

 |           |            |           |            |           |            
|------------------------|------------------------|------------------------|
|------------------------|------------------------|------------------------|
|------------------------|------------------------|------------------------|
|0-----------0-----------|1-------------------1---|1-----------1-----------|

 |           |            |           |            |           |            
|------------------------|------------------------|------------------------|
|------------------------|------------------------|------------------------|
|------------------------|----------------0---2---|3-------------------3---|
|3-------------------3---|3-----------3-----------|------------------------|

 |           |            |           |            |           |            
|------------------------|------------------------|------------------------|
|------------------------|------------------------|------------------------|
|3-----------3-----------|3-------------------3---|3-----------3-----------|
|------------------------|------------------------|------------------------|

 |           |            |           |            |           |            
|------------------------|------------------------|------------------------|
|3-------------------3---|5-------------------5---|3-------------------3---|
|------------------------|------------------------|------------------------|
|------------------------|------------------------|------------------------|

 |           |            |           |            |           |            
|------------------------|------------------------|------------------------|
|1-------------------1---|3-------------------3---|5-------------------5---|
|------------------------|------------------------|------------------------|
|------------------------|------------------------|------------------------|

 |           |            |           |            |           |            
|------------------------|------------------------|------------------------|
|------------------------|----------------0---2---|3-------------------3---|
|3-------------------3---|3-----------3-----------|------------------------|
|------------------------|------------------------|------------------------|

 |           |            |           |            |           |            
|------------------------|------------------------|------------------------|
|5-------------------5---|3-------------------3---|1-------------------1---|
|------------------------|------------------------|------------------------|
|------------------------|------------------------|------------------------|

 |           |            |           |            |           |            
|------------------------|------------------------|------------------------|
|3-------------------3---|5-------------------5---|------------------------|
|------------------------|------------------------|3-------------------3---|
|------------------------|------------------------|------------------------|

 |           |                       
|------------------------|------------------------|
|------------------------|---and so on...---------|
|3---------------0---2---|------------------------|
|------------3-----------|------------------------|
            
Submit corrections


        Unchained Melody lessons Hard to play? Try these video lessons and learn fast Unchained Melody lessons
        
↑ Back to top | Tablatures and chords for acoustic guitar and electric guitar, ukulele, drums are parodies/interpretations of the original songs. You may use it for private study, scholarship, research or language learning purposes only