» » »

Righteous Brothers - Unchained Melody Tabs

Artists:  A B C D E F G H I J K L M N O P Q R S T U V W X Y Z # 

Unchained Melody Tabs

(ver. 2) Click to play this song!
Righteous Brothers
 Rating:
4.3/5 (13 votes)

 Unchained Melody lessons Tabs too difficult? Try these video lessons and learn fast
 
                [Verse]
e|---------------------------------------------------------------------------|
B|---------------------------------------------------------------------------|
G|-------------------------------------------------------------------2-------|
D|0-2-0-2-4-0-0-----2-4-0-2-0---------2-4-2-4-4-0-0-----2-4-0-2-0-0----------|
A|--------------0-4-------------0-2--2---------------0-4---------------------|
E|----------------------------4----------------------------------------------|

e|---------------------------------------------------------------------------|
B|---------------------------------------------------------------------------|
G|-2-4-0---2-----------------------------------------------------------------|
D|------0---4-0---0-4-0---2-2-2-2-4-0----------------------------------------|
A|--------------0-------0----------------------------------------------------|
E|---------------------------------------------------------------------------|


[Chorus]
e|------------------------------------6-------------------------------------6|
B|----2-4-2-4-2-0-2-----2-4-5-7-9-9-7-------2-4-2-4-2-0-2-----2-4-5-7-9-9----|
G|-2-4---------------4-2----------------2-4---------------4-2----------------|
D|---------------------------------------------------------------------------|
A|---------------------------------------------------------------------------|
E|---------------------------------------------------------------------------|

[Verse]
e|---------------------------------------------------------------------------|
B|---------------------------------------------------------------------------|
G|-------------------------------------------------------------------2-------|
D|0-2-0-2-4-0-0-----2-4-0-2-0---------2-4-2-4-4-0-0-----2-4-0-2-0-0----------|
A|--------------0-4-------------0-2--2---------------0-4---------------------|
E|----------------------------4----------------------------------------------|

e|---------------------------------------------------------------------------|
B|---------------------------------------------------------------------------|
G|-2-4-0---2-----------------------------------------------------------------|
D|------0---4-0---0-4-0---2-2-2-2-4-0----------------------------------------|
A|--------------0-------0----------------------------------------------------|
E|---------------------------------------------------------------------------|


[Chorus]
e|------------------------------------6-------------------------------------6|
B|----2-4-2-4-2-0-2-----2-4-5-7-9-9-7-------2-4-2-4-2-0-2-----2-4-5-7-9-9----|
G|-2-4---------------4-2----------------2-4---------------4-2----------------|
D|---------------------------------------------------------------------------|
A|---------------------------------------------------------------------------|
E|---------------------------------------------------------------------------|
            
Submit corrections


        Unchained Melody lessons Hard to play? Try these video lessons and learn fast Unchained Melody lessons
        
↑ Back to top | Tablatures and chords for acoustic guitar and electric guitar, ukulele, drums are parodies/interpretations of the original songs. You may use it for private study, scholarship, research or language learning purposes only