Home » R » Restless Heart »

Restless Heart - I'll Still Be Lovin You Tabs

Artists:  A B C D E F G H I J K L M N O P Q R S T U V W X Y Z # 

I'll Still Be Lovin You Tabs

(ver. 2) Click to play this song!
Restless Heart
(2)
Restless Heart "I'll Still Be Lovin You"

Solo by axehappy
Revised by Axeman71

CAPO 1 (all fret numbers and chord names relative to capo)


INTRO
   G               Dm 5-7        CaddD          Dsus  D		
e------------------0---0------------------------3-----3-2------|
B------------0-----0-----0-----------3-3--------3---3---3---3--|
G--0---0-2---------0-0------0----0--------0-----2-2-------2----|
D--0-0-----0-------5-------------2-2------------0-------------0|
A--2---------------5-------------3-----------------------------|
E--------------------------------------------------------------|

VERSE
   G                       Dm 5-7                CaddD          	
e--------------------------0---0--------------------------------|
B------------0-------------0-----0-------------------3----------|
G--0---0-2-----------------0-0------0------------0-----0--------|
D--0-0-----0---------------5---------------------2-2------2-----|
A--2-----------------------5---------------------3--------------|
E---------------------------------------------------------------|
1.          Changing my life        with your love
2.          Never before            did I know

   Dsus          D                 
e--3----------3--2-----------------|
B--3-----3-------3-------3---------|
G--2-2---------------2---------0---|
D--0-------------------------------|
A----------------------------------|
E----------------------------------|
1.   Has been so ea -sy  for   you
2.   How loving  someone could be

   G                       Dm 5-7                CaddD             Bm7    CaddD
e--------------------------0---0------------------------------------------------|
B------------0-------------0-----0-------------------3-----------------3--------|
G--0---0-2-----------------0-0------0------------0-----0-----------2-2----0-----|
D--0-0-----0---------------5---------------------2-2------2--------4------2-----|
A--2-----------------------5---------------------3-----------------2------3-----|
E-------------------------------------------------------------------------------|  
1.         And I'm amazed           every   day           and I'll need   you
2.         Now I can  see           you and me            for a    life - time

   C                   G              D
e----0----0---0---0----3----------3---2-----------|
B----1----1---1---1----0----------0---3---3-------|
G----0----0---0---0----0----------0---2-------2---|
D-------------------------------------0---------0-|
A--3----------------------------------------------|
E-------------------------------------------------|
1.   Till all the moun-tains are val-leys
2.   Un - til the last moon  is  ris-ing

   C                      G       D              EaddF# 
e----0------0---0----0----3-------2-2--------2---------------0|
B----1------1---1----1----0-------3-3----3---------------0----|
G----0------0---0----0----0-------2-2------2-----------1---1--|
D---------------------------------0-0----------------4--------|
A--3-----------------------------------------------2----------|
E------------------------------------------------0------------|
1.   And    ev -ery  oce -an   is dry     my love
2.   You'll see the  love in   my eye     my love


CHORUS: (Finger the A and F#m7 chords using your 2, 3, and 4 fingers to make playing the rythm easier)

  A                          F#m7                           C#m7
e----------------------------------------------------------------------------0--
B------2----0--------2-----------------2---0-----2------0--------------0--------
G------2----1--------2-----------------2---1-----2------1-------1---------------
D----2-----------------------------2---2----------------------2-----------------
A--0--------------------------------------------------------4-------------------
E------------------------------2------------------------------------------------
                               T
       I'll be yours until the sun doesn't shine   till time    stands still

 
   Cadd9    G            
e-----------3----------------| 
B-3---------0-----0----------|
D-0-0-------0-----------2----|
G-2-----2---0----------------|
A-3---------2----------------|
E-----------3----------------|
  Until the winds don't blow
 
  A                          F#m7                 C#m7
e--------------------------------------------------------------0--|
B------2----0-----2-----------------2--0---2---0--------0---------|
G------2----1-----2-----------------2--1---2---1------1-----1-----|
D----2---------------------------2------------------2-------------|
A--0----------------------------------------------4---------------|
E----------------------------2------------------------------------|
                             T
       When today is  just a memory to me    I know
 

  C                   G      C                           DaddE                
e---0----0-----0--0------------0----0-----0--0-----------------0-------------------------
B---1----1-----1--1---0-0------1----1-----1--1---0-0----------------3--------------------
D---0----0-----0--0---0---0----0----0-----0--0---0---0-----2------------2----------------
G---2----2-----2--2---0--------2----2-----2--2---0-------0------------------0------------
A----------------------------------------------------------------------------------------
E----------------------------------------------------------------------------------------
    I'll still be lovin'       I'll still be lovin'   you                      I'll still 



   Cadd9                
e---------0-----------| 
B-3-----------3-------|
D-0----0-----------0--|
G-2--2----------------|
A-3-------------------|
E---------------------|
  be lovin' you



Solo

  DaddE       EaddF#      Bm 7-5   AaddB       E/B   B      EaddF#     Bm 7-5
e---------------0-0-0-2-4-4--7\4---------0h2-2/4-2p0-0h2-0--0--0-0-2-4-4-4-4-4-4---|
B-------------------------5-----5-------------------------4-0----------5-5-4-2-2---|
G-2-4-2-0-------1-1-1-2-4-3------4/6\4--1-/2-2/4-----4------1--1-1-2-4-3-----------|
D---------4-5\2--------------------------------------------------------------------|
A----------------------------------------------------------------------------------|
E----------------------------------------------------------------------------------|

       Abm7        G            D      EaddF#          
E--4---4-4-4-----------------------------------------7-7/9-|
B--4h5-5-4-4-5/7--------------8-8/10---------------9-------|
G---------------------------7--------9--------9-11---7-7/9-|
D----------------9--5-7-7/9------------9--9-9--------------|
A----------------------------------------------------------|
E----------------------------------------------------------|


CHORUS


OUTRO:  repeat and adlib (i'm not sure the fingering of the Dadd3 chord is correct)

   DaddE                                           CaddD
e------------0---------------------0---------------------------------------------------------| 
B-3------------------3-------------------------------------3------------------3--3----3--3---|
D-2---2---------------------2-------------2-------------0-----0---------------2--2----2--2---|
G-0--------------------------------------------------2------------2--------------------------|
A--------------------------------------------------3--------------------------------3------3-|
E--------------------------------------------------------------------------------------------|
    I'll still be lovin' I'll still be lovin' you,   I'll still be lovin' you...
            
Submit corrections

↑ Back to top | Tablatures and chords for acoustic guitar and electric guitar, ukulele, drums are parodies/interpretations of the original songs. You may use it for private study, scholarship, research or language learning purposes only