Home » R » Restless Heart »

Restless Heart - I'll Still Be Lovin You Tabs

Artists:  A B C D E F G H I J K L M N O P Q R S T U V W X Y Z # 

I'll Still Be Lovin You Tabs

(ver. 1) Click to play this song!
Restless Heart
Restless Heart "I'll Still Be Lovin You"


(solo by axehappy)

CAPO 1


INTRO
   G        C#dim  CM7      Dsus  D		
e---------------3------------3--3-2----|
B----------0-2---2-----0-0----3----3-3-|
G--0---0-0---3----3------0-0---2----2--|
D--0-0-0--0--2-2----2-2------0----0----|
A--2----------------3------------------|
E--------------------------------------|

VERSE
   G                          C#dim               Cadd9      		
e---------------------------------3-----------------------|
B----------0-------------------2---2------------------3---|
G--0---0-0---------------------3----3------------------0--|
D--0-0-0--0--------------------2-2-----------------2-2--2-|
A--2-----------------------------------------------3------|
E---------------------------------------------------------|
1.          Changing my life       with your love
2.          Never before           did I know

   Dsus          D                 
e--3----------3--2-----------------|
B----3---------------3---------3---|
G--------2---------------2---------|
D--0-------------0-----------------|
A----------------------------------|
E----------------------------------|
1.   Has been so ea -sy  for   you
2.   How loving  someone could be

   G                       C#dim       Cadd9            G/B  Cadd9
e------------------------------3-----------------------------------|
B----------0----------------2---2-----------3---------------3------|
G--0---0-0------------------3----3-------0---0---------------------|
D--0-0-0--0-----------------2-2----------2-2--2-----------0--------|
A--2-------------------------------------3---------------2----3----|
E------------------------------------------------------------------|
1.           And I'm amazed     every   day    and I'll need you
2.           Now I can  see     you and me     for a    life-time

   C                            D 
e----0----0---0---0---0---------2h3-2-----2---|
B----1----1---1---0h1-0---------3---3----3--3-|
G----0----0---0---0---0---------2---2---2--2--|
D-------------------------------0---0---------|
A--3------------------------------------------|
E---------------------------------------------|
1.   Till all the mountains are val-leys
2.   Until the last   moon is   ris-ing

   C                              D          E 
e----0------0---0----0----0-------2-2---2----------0-|
B----1------1---1----1----0h1-----3-3--3--3------0---|
G----0------0---0----0----0-------2-2-2--2-----1-----|
D---------------------------------0-0---------2-2-2--|
A--3-----------------------------------------2-------|
E----------------------------------------------------|
1.   And    ev  -ery oce  -an  is dry     my love
2.   You'll see the  love in   my eye     my love

CHORUS

(strum chords or pick this *I THINK*)

  A                          F#m7
e-------------------0---------------------0----|
B------------2--2p0-0h2----------2---2p0--0h2--|
G------------2--2----------------2---2---------|
D--2-----2---2--2----------------2---2---------|
A--0-------------------------4-4---------------|
E----------------------------2-----------------|
     I'll be yours until the sun doesn't shine

      C#m7
e------------------4-----|
B--------5-----5---------|
D-----------4------------|
G-------6-6--------------|
A------4-----------------|
E------------------------|
  Till time stands still
 
   Cadd9    G/B            
e----------------------------| 
B-3---------3----------------|
D-0-0-------0-----0----------|
G-2-----2---0---0------------|
A-3---------2----------------|
E----------------------------|
  Until the winds don't blow
 
  A                   F#m7
e-----------------0--------------0--------|
B-----------------0h2-----2--2p0-0h2------|
G----------2--2p0---------2--2------------|
D--2-------2--2-----------2--2------------|
A--0-----2-2--2-------4-4-----------------|
E---------------------2-------------------|
    When today is     just a memory to me 
 
    C#m7
e---------4-|
B-----5--5--|
D-------4---|
G----6-6----|
A---4-------|
E-----------|
  I know__

  C                        c                        D                C
e---0----0-----0--0---0-0----0----0-----0--0---0-0-----2------2---------------------0------|
B---1h3--1-----1--0h1-0------1h3--1-----1--0h1-0------3--3---3-3------------------1-----1--|
D---0----0-----0--0---0--0---0----0-----0--0---0--0--2--2-2-2---2----0--------0--------0-0-|
G---------------------------------------------------0------0---------2-----2---------------|
A-3------------------------3-----------------------------------------3---------------------|
E------------------------------------------------------------------------------------------|
    I'll still be lovin'     I'll still be lovin'   you         I'll still be lovin' you

Solo

   E        F#         AM7      B         E              F#         G#m
E--------------0-0-2-4-4--7\4---------0h2-2/4-2p0-0h2-0--0--0-0-2-4-4-4-4-4-0h2-|
B----------------------5-----5-------------------------4-0----------5-5-4-2-2---|
G--4-2-0-------1-1-2-4-3------4/6\4--1-/2-2/4-----4------1--1-1-2-4-3-----------|
D-------4-5\2-------------------------------------------------------------------|
A-------------------------------------------------------------------------------|
E-------------------------------------------------------------------------------|

     G         D                E   	          A
E--4---4-4-4----------------------------------7-7/9-|
B--4h5-5-4-4-5/7-----------8-8/10-----------9-------|
G-------------------------7------9------9-11--7-7/9-|
D---------------9--5-7-7/9--------9--9-9------------|
A---------------------------------------------------|
E---------------------------------------------------|


CHORUS

OUTRO
  C                        c                        D                   C
e---0----0-----0--0---0-0----0----0-----0--0---0-0-----2------2---------------------0------|
B---1h3--1-----1--0h1-0------1h3--1-----1--0h1-0------3--3---3-3------------------1-----1--|
D---0----0-----0--0---0--0---0----0-----0--0---0--0--2--2-2-2---2----0--------0--------0-0-|
G---------------------------------------------------0------0---------2-----2---------------|
A-3------------------------3-----------------------------------------3---------------------|
E------------------------------------------------------------------------------------------|
    I'll still be lovin'     I'll still be lovin'   you         I'll still be lovin' you

            
Submit corrections

↑ Back to top | Tablatures and chords for acoustic guitar and electric guitar, ukulele, drums are parodies/interpretations of the original songs. You may use it for private study, scholarship, research or language learning purposes only