» » »

Restless Heart - I'll Still Be Loving You Chords

Artists:  A B C D E F G H I J K L M N O P Q R S T U V W X Y Z # 

I'll Still Be Loving You Chords

(ver. 1) Click to play this song!
Restless Heart
 Rating:
3.4/5 (5 votes)

 I'll Still Be Loving You lessons Tabs too difficult? Try these video lessons and learn fast
 
                -------------------------------------------------------------------------------
-------------------------------------------------------------------------------



intro/verse

       G                Em                 C     Cadd9        Dsus4         D
e|-----3------------|---0------0-------|---0---------------|---3------3--2-----3---|
B|-----0---------0--|---0---------0----|---1------3--3-----|---3---------3---2-----|
G|-----0----0--2----|---0---0-------0--|---0---0--------0--|---2--2--------0-------|
D|-----0--0---------|---2--------------|---2------------2--|---0----0--------------|
A|-----2------------|---2--------------|---3---------------|-----------------------|
E|-----3------------|---0--------------|---x---------------|-----------------------|


G           Em
Changin' my life
          C   Cadd9
With your love
Dsus4             D         G
Has been so ea-sy for you
          Em
And I'm a-mazed
       C  Cadd9
Every day
C        Cadd9 D
And I'll need you
C                G         Dsus4  D
  Until the moun-tains are val-leys
C             G       D        E
  And every o-cean is dry...My love

(Chorus)
A                         F#m
   I'll be your until the sun doesn't shine
     C#m
Till time stands still
C         G               A
Until the winds don't blow
A                       F#m              C#m
   When today is just a mem'ry to me...I know
C                 G
I'll still be lov-in'
C                 G   D
I'll still be lov-in' you
              C
I'll still be lovin' you

(2nd verse)
Never before
Did I know
How loving someone could be
Now I can see
You and me
For a lifetime
Until the last moon is rising
You'll see the love in my eyes...my love

(Chorus)

break - E, C#m, A, C#, B, E, C#m, Abm, G, A, E

(Chorus)

D
I'll still be lovin'
I'll still be lovin'
C
I'll still be lovin' you
(repeat and fade)
            
Submit corrections


        I'll Still Be Loving You lessons Hard to play? Try these video lessons and learn fast I'll Still Be Loving You lessons
        
↑ Back to top | Tablatures and chords for acoustic guitar and electric guitar, ukulele, drums are parodies/interpretations of the original songs. You may use it for private study, scholarship, research or language learning purposes only