» » »

Red Hot Chili Peppers - Under The Bridge Tabs

Artists:  A B C D E F G H I J K L M N O P Q R S T U V W X Y Z # 

Under The Bridge Tabs

(ver. 9) Click to play this song!
Red Hot Chili Peppers
 Rating:
4.2/5 (30 votes)

 Under The Bridge lessons Tabs too difficult? Try these video lessons and learn fast
 
                [Intro]
e|----------------|-----------------------------|--------------------|
B|----------------|--------2--------------------|--------------------|
G|----------------|----------------3------------|--------------------|
D|12--------12----|------------4-----4-4-2------|12--------12/14-12--|
A|---9-12-9----12-|----------4---4---------5-4--|---9-12-9-----------|
E|10--------------|9-7-5-4-2--------------------|10------------------|

e|------|--------------------|-------------------------|-----------------|
B|------|--------------------|-------------------------|-----------------|
G|4/6-6-|--------3-----------|-------------------4/6-6-|--------3--------|
D|5/7-7-|----4-----4-4-2-----|12--------12/14-12-5/7-7-|----4-----4------|
A|------|--4---4---------5-2-|---9-12-9----------------|--4---4-----4/7--|
E|------|2-------------------|10-----------------------|2----------------|
            
Submit corrections


        Under The Bridge lessons Hard to play? Try these video lessons and learn fast Under The Bridge lessons
        
↑ Back to top | Tablatures and chords for acoustic guitar and electric guitar, ukulele, drums are parodies/interpretations of the original songs. You may use it for private study, scholarship, research or language learning purposes only