» » »

Red Hot Chili Peppers - The Power Of Equality Tabs

Artists:  A B C D E F G H I J K L M N O P Q R S T U V W X Y Z # 

The Power Of Equality Tabs

(ver. 5) Click to play this song!
Red Hot Chili Peppers
 Rating:
4.3/5 (19 votes)

 The Power Of Equality lessons Tabs too difficult? Try these video lessons and learn fast
 
                [Intro]

e|-----------------------------------------------------------------------|
B|--7-----------7-------7-----------7-----------7-------7----------------|
G|--6--8-8-8-8--6--8-8--6--8-8-8-8--6--8-8-8-8--6--8-8--6--8-8-8-8-------|
D|-----------------------------------------------------------------------|
A|-----------------------------------------------------------------------|
E|-----------------------------------------------------------------------|

e|------------------------------------------------------|
B|--7-----------7-------7-----------7-----------7-------|
G|--6--8-8-8-8--6--8-8--6--8-8-8-8--6--8-8-8-8--6-------|
D|------------------------------------------------------|
A|-------------------------------------------------6~---|
E|------------------------------------------------------|

[Verse]

e|-----------------------------------------------------------------------|
B|--7-----------7-------7-----------7-----------7-------7----------------|
G|--6--8-8-8-8--6--8-8--6--8-8-8-8--6--8-8-8-8--6--8-8--6--8-8-8-8-------|
D|-----------------------------------------------------------------------|
A|-----------------------------------------------------------------------|
E|-----------------------------------------------------------------------|

e|--------------------------------------------------------------|
B|--7-----------7-------7-----------7---------------------------|
G|--6--8-8-8-8--6--8-8--6--8-8-8-8--6--8-8-8-8-8-8-8-8-8-8-8-8--|
D|--------------------------------------------------------------|
A|--------------------------------------------------------------|
E|--------------------------------------------------------------|

e|-----------------------------------------------------------------------|
B|--7-----------7-------7-----------7-----------7-------7----------------|
G|--6--8-8-8-8--6--8-8--6--8-8-8-8--6--8-8-8-8--6--8-8--6--8-8-8-8-------|
D|-----------------------------------------------------------------------|
A|-----------------------------------------------------------------------|
E|-----------------------------------------------------------------------|

e|------------------------------------------------------|
B|--7-----------7-------7-----------7-----------7-------|
G|--6--8-8-8-8--6--8-8--6--8-8-8-8--6--8-8-8-8--6-------|
D|------------------------------------------------------|
A|-------------------------------------------------6~---|
E|------------------------------------------------------|

e|-----------------------------------------------------------------------|
B|--7-----------7-------7-----------7-----------7-------7----------------|
G|--6--8-8-8-8--6--8-8--6--8-8-8-8--6--8-8-8-8--6--8-8--6--8-8-8-8-------|
D|-----------------------------------------------------------------------|
A|-----------------------------------------------------------------------|
E|-----------------------------------------------------------------------|

e|-----------------------------------5-5-5-5-5-5-5-5---|
B|--7-----------7-------7------------5-5-5-5-5-5-5-5---|
G|--6--8-8-8-8--6--8-8--6--8-8-8-8---5-5-5-5-5-5-5-5---|
D|-----------------------------------4-4-4-4-4-4-4-4---|
A|-----------------------------------------------------|
E|-----------------------------------------------------|

[Chorus]

e|----------------------------------------------------------------|
B|------------------------------------9--9--x--11-11--11p9--------|
G|----6-6--6--5-5--5--4-4----------x--9--9--x--11-11--11p9--------|
D|--x----------------------6~-5~-4-x-----------------------11~~~--|
A|----------------------------------------------------------------|
E|----------------------------------------------------------------|

e|--------------------------------------------------------------|
B|------------------------------------9--9--x--11-11--11--------|
G|----6-6--6--5-5--5--4-4----------x--9--9--x--11-11--11p9~~~---|
D|--x----------------------6~-5~-4-x----------------------------|
A|--------------------------------------------------------------|
E|--------------------------------------------------------------|

e|----------------------------------------------------------------|
B|------------------------------------9--9--x--11-11--11p9--------|
G|----6-6--6--5-5--5--4-4----------x--9--9--x--11-11--11p9--------|
D|--x----------------------6~-5~-4-x-----------------------11~~~--|
A|----------------------------------------------------------------|
E|----------------------------------------------------------------|

e|-------------------------------------|
B|-------------------------------------|
G|----6-6--6--5-5--5--4-4--------------|
D|--x----------------------6~-5~-4-----|
A|-------------------------------------|
E|-------------------------------------|

e|-----------------------------------------------------------------------|
B|--7-----------7-------7-----------7-----------7-------7----------------|
G|--6--8-8-8-8--6--8-8--6--8-8-8-8--6--8-8-8-8--6--8-8--6--8-8-8-8-------|
D|-----------------------------------------------------------------------|
A|-----------------------------------------------------------------------|
E|-----------------------------------------------------------------------|

e|------------------------------------------------------|
B|--7-----------7-------7-----------7-----------7-------|
G|--6--8-8-8-8--6--8-8--6--8-8-8-8--6--8-8-8-8--6-------|
D|------------------------------------------------------|
A|-------------------------------------------------6~---|
E|------------------------------------------------------|

[Verse]

e|-----------------------------------------------------------------------|
B|--7-----------7-------7-----------7-----------7-------7----------------|
G|--6--8-8-8-8--6--8-8--6--8-8-8-8--6--8-8-8-8--6--8-8--6--8-8-8-8-------|
D|-----------------------------------------------------------------------|
A|-----------------------------------------------------------------------|
E|-----------------------------------------------------------------------|

e|--------------------------------------------------------------|
B|--7-----------7-------7-----------7---------------------------|
G|--6--8-8-8-8--6--8-8--6--8-8-8-8--6--8-8-8-8-8-8-8-8-8-8-8-8--|
D|--------------------------------------------------------------|
A|--------------------------------------------------------------|
E|--------------------------------------------------------------|

e|-----------------------------------------------------------------------|
B|--7-----------7-------7-----------7-----------7-------7----------------|
G|--6--8-8-8-8--6--8-8--6--8-8-8-8--6--8-8-8-8--6--8-8--6--8-8-8-8-------|
D|-----------------------------------------------------------------------|
A|-----------------------------------------------------------------------|
E|-----------------------------------------------------------------------|

e|------------------------------------------------------|
B|--7-----------7-------7-----------7-----------7-------|
G|--6--8-8-8-8--6--8-8--6--8-8-8-8--6--8-8-8-8--6-------|
D|------------------------------------------------------|
A|-------------------------------------------------6~---|
E|------------------------------------------------------|

e|-----------------------------------------------------------------------|
B|--7-----------7-------7-----------7-----------7-------7----------------|
G|--6--8-8-8-8--6--8-8--6--8-8-8-8--6--8-8-8-8--6--8-8--6--8-8-8-8-------|
D|-----------------------------------------------------------------------|
A|-----------------------------------------------------------------------|
E|-----------------------------------------------------------------------|

e|-----------------------------------5-5-5-5-5-5-5-5---|
B|--7-----------7-------7------------5-5-5-5-5-5-5-5---|
G|--6--8-8-8-8--6--8-8--6--8-8-8-8---5-5-5-5-5-5-5-5---|
D|-----------------------------------4-4-4-4-4-4-4-4---|
A|-----------------------------------------------------|
E|-----------------------------------------------------|

[Chorus]

e|----------------------------------------------------------------|
B|------------------------------------9--9--x--11-11--11p9--------|
G|----6-6--6--5-5--5--4-4----------x--9--9--x--11-11--11p9--------|
D|--x----------------------6~-5~-4-x-----------------------11~~~--|
A|----------------------------------------------------------------|
E|----------------------------------------------------------------|

e|--------------------------------------------------------------|
B|------------------------------------9--9--x--11-11--11--------|
G|----6-6--6--5-5--5--4-4----------x--9--9--x--11-11--11p9~~~---|
D|--x----------------------6~-5~-4-x----------------------------|
A|--------------------------------------------------------------|
E|--------------------------------------------------------------|

e|----------------------------------------------------------------|
B|------------------------------------9--9--x--11-11--11p9--------|
G|----6-6--6--5-5--5--4-4----------x--9--9--x--11-11--11p9--------|
D|--x----------------------6~-5~-4-x-----------------------11~~~--|
A|----------------------------------------------------------------|
E|----------------------------------------------------------------|

e|-------------------------------------|
B|-------------------------------------|
G|----6-6--6--5-5--5--4-4--------------|
D|--x----------------------6~-5~-4-----|
A|-------------------------------------|
E|-------------------------------------|

[Solo]

e|-------------------15-15--10----------------12-12---------|
B|-------------------13-13--10----------------13-13--10-----|
G|------------10-10--12-12--10----------10p0--12-12--10-----|
D|-12~-10-(x)-------------------12~-10----------------------|
A|----------------------------------------------------------|
E|----------------------------------------------------------|

e|-------------------15-15--10----------------12-12---------|
B|-------------------13-13--10----------------13-13--10-----|
G|------------10-10--12-12--10----------10p0--12-12--10-----|
D|-12~-10-(x)-------------------12~-10----------------------|
A|----------------------------------------------------------|
E|----------------------------------------------------------|

e|-------------------15-15--10----------------12-12---------|
B|-------------------13-13--10----------------13-13--10-----|
G|------------10-10--12-12--10----------10p0--12-12--10-----|
D|-12~-10-(x)-------------------12~-10----------------------|
A|----------------------------------------------------------|
E|----------------------------------------------------------|

e|----------------12-12---------|
B|----------------13-13--10-----|
G|----------10p0--12-12--10-----|
D|--12~-10----------------------|
A|------------------------------|
E|------------------------------|

e|-------------------13-13-13-13-13-----|
B|-------------------13-13-13-13-13-----|
G|------------10-10--12-12-12-12-12-----|
D|-12~-10-(x)---------------------------|
A|--------------------------------------|
E|--------------------------------------|

[Verse]

e|-----------------------------------------------------------------------|
B|--7-----------7-------7-----------7-----------7-------7----------------|
G|--6--8-8-8-8--6--8-8--6--8-8-8-8--6--8-8-8-8--6--8-8--6--8-8-8-8-------|
D|-----------------------------------------------------------------------|
A|-----------------------------------------------------------------------|
E|-----------------------------------------------------------------------|

e|--------------------------------------------------------------|
B|--7-----------7-------7-----------7---------------------------|
G|--6--8-8-8-8--6--8-8--6--8-8-8-8--6--8-8-8-8-8-8-8-8-8-8-8-8--|
D|--------------------------------------------------------------|
A|--------------------------------------------------------------|
E|--------------------------------------------------------------|

e|-----------------------------------------------------------------------|
B|--7-----------7-------7-----------7-----------7-------7----------------|
G|--6--8-8-8-8--6--8-8--6--8-8-8-8--6--8-8-8-8--6--8-8--6--8-8-8-8-------|
D|-----------------------------------------------------------------------|
A|-----------------------------------------------------------------------|
E|-----------------------------------------------------------------------|

e|------------------------------------------------------|
B|--7-----------7-------7-----------7-----------7-------|
G|--6--8-8-8-8--6--8-8--6--8-8-8-8--6--8-8-8-8--6-------|
D|------------------------------------------------------|
A|-------------------------------------------------6~---|
E|------------------------------------------------------|

e|-----------------------------------------------------------------------|
B|--7-----------7-------7-----------7-----------7-------7----------------|
G|--6--8-8-8-8--6--8-8--6--8-8-8-8--6--8-8-8-8--6--8-8--6--8-8-8-8-------|
D|-----------------------------------------------------------------------|
A|-----------------------------------------------------------------------|
E|-----------------------------------------------------------------------|

e|-----------------------------------5-5-5-5-5-5-5-5---|
B|--7-----------7-------7------------5-5-5-5-5-5-5-5---|
G|--6--8-8-8-8--6--8-8--6--8-8-8-8---5-5-5-5-5-5-5-5---|
D|-----------------------------------4-4-4-4-4-4-4-4---|
A|-----------------------------------------------------|
E|-----------------------------------------------------|

[Chorus]

e|----------------------------------------------------------------|
B|------------------------------------9--9--x--11-11--11p9--------|
G|----6-6--6--5-5--5--4-4----------x--9--9--x--11-11--11p9--------|
D|--x----------------------6~-5~-4-x-----------------------11~~~--|
A|----------------------------------------------------------------|
E|----------------------------------------------------------------|

e|--------------------------------------------------------------|
B|------------------------------------9--9--x--11-11--11--------|
G|----6-6--6--5-5--5--4-4----------x--9--9--x--11-11--11p9~~~---|
D|--x----------------------6~-5~-4-x----------------------------|
A|--------------------------------------------------------------|
E|--------------------------------------------------------------|

e|----------------------------------------------------------------|
B|------------------------------------9--9--x--11-11--11p9--------|
G|----6-6--6--5-5--5--4-4----------x--9--9--x--11-11--11p9--------|
D|--x----------------------6~-5~-4-x-----------------------11~~~--|
A|----------------------------------------------------------------|
E|----------------------------------------------------------------|

e|-------------------------------------|
B|-------------------------------------|
G|----6-6--6--5-5--5--4-4--------------|
D|--x----------------------6~-5~-4-----|
A|-------------------------------------|
E|-------------------------------------|

[Solo]

Turn your distortion on and slowly bend and unbend this note, that's basically all that is done here.

e|---------|
B|--15b----|
G|---------|
D|---------|
A|---------|
E|---------|

[Verse]

e|-----------------------------------------------------------------------|
B|--7-----------7-------7-----------7-----------7-------7----------------|
G|--6--8-8-8-8--6--8-8--6--8-8-8-8--6--8-8-8-8--6--8-8--6--8-8-8-8-------|
D|-----------------------------------------------------------------------|
A|-----------------------------------------------------------------------|
E|-----------------------------------------------------------------------|

e|--------------------------------------------------------------|
B|--7-----------7-------7-----------7---------------------------|
G|--6--8-8-8-8--6--8-8--6--8-8-8-8--6--8-8-8-8-8-8-8-8-8-8-8-8--|
D|--------------------------------------------------------------|
A|--------------------------------------------------------------|
E|--------------------------------------------------------------|

e|-----------------------------------------------------------------------|
B|--7-----------7-------7-----------7-----------7-------7----------------|
G|--6--8-8-8-8--6--8-8--6--8-8-8-8--6--8-8-8-8--6--8-8--6--8-8-8-8-------|
D|-----------------------------------------------------------------------|
A|-----------------------------------------------------------------------|
E|-----------------------------------------------------------------------|

e|-----------------------------------------------------------------------|
B|--7-----------7-------7-----------7-----------7-------7----------------|
G|--6--8-8-8-8--6--8-8--6--8-8-8-8--6--8-8-8-8--6--8-8--6--8-8-8-8-------|
D|-----------------------------------------------------------------------|
A|-----------------------------------------------------------------------|
E|-----------------------------------------------------------------------|

e|-----------------------------------------------------------------------|
B|--7-----------7-------7-----------7-----------7-------7----------------|
G|--6--8-8-8-8--6--8-8--6--8-8-8-8--6--8-8-8-8--6--8-8--6--8-8-8-8-------|
D|-----------------------------------------------------------------------|
A|-----------------------------------------------------------------------|
E|-----------------------------------------------------------------------|

e|----------------------------------------------------------|
B|--7-----------7-------7-----------7-----------7-------7---|
G|--6--8-8-8-8--6--8-8--6--8-8-8-8--6--8-8-8-8--6-------6---|
D|------------------------------------------------------x---|
A|-------------------------------------------------6~---6---|
E|----------------------------------------------------------|

[Outro] 

This part is hard to hear, but it's there.

e|----------------------------------------------------------|
B|-7-7-7-7-7--7-7-7-7-7--7-7-7-7-7--7-7-7-7-7/9--9-9-9-9----|
G|-6-6-6-6-6--6-6-6-6-6--6-6-6-6-6--6-6-6-6-6/8--8-8-8-8----|
D|----------------------------------------------------------|
A|----------------------------------------------------------|
E|----------------------------------------------------------|

e|-----------------------------------------------|
B|-7-7-7-7-7-\6-6-6-6-6--6-6-6-6-6--6-6-6-6-6----|
G|-6-6-6-6-6-\5-5-5-5-5--5-5-5-5-5--5-5-5-5-5----|
D|-----------------------------------------------|
A|-----------------------------------------------|
E|-----------------------------------------------|

e|----------------------------------------------------------|
B|-7-7-7-7-7--7-7-7-7-7--7-7-7-7-7--7-7-7-7-7/9--9-9-9-9----|
G|-6-6-6-6-6--6-6-6-6-6--6-6-6-6-6--6-6-6-6-6/8--8-8-8-8----|
D|----------------------------------------------------------|
A|----------------------------------------------------------|
E|----------------------------------------------------------|

e|---------------------------------------------------------|
B|-7-7-7-7-7-\6-6-6-6-6--6-6-6-6-6--6-6-6-6-6--------------|
G|-6-6-6-6-6-\5-5-5-5-5--5-5-5-5-5--5-5-5-5-5--------------|
D|---------------------------------------------x-4~-3-2~---|
A|---------------------------------------------------------|
E|---------------------------------------------------------|            
Submit corrections


        The Power Of Equality lessons Hard to play? Try these video lessons and learn fast The Power Of Equality lessons
        
↑ Back to top | Tablatures and chords for acoustic guitar and electric guitar, ukulele, drums are parodies/interpretations of the original songs. You may use it for private study, scholarship, research or language learning purposes only