» » »

Red Hot Chili Peppers - Sikamikanico Tabs

Artists:  A B C D E F G H I J K L M N O P Q R S T U V W X Y Z # 

Sikamikanico Tabs

(ver. 2) Click to play this song!
Red Hot Chili Peppers
 Rating:
4/5 (4 votes)

 Sikamikanico lessons Tabs too difficult? Try these video lessons and learn fast
 
                Tuning: Standard

e|---------------------------------------------------------------------------|
B|---------------------------------------------------------------------------|
G|-0-0-0-0-3-0-0-0-3-0-0-3-0-0-3-5-------------------------------------------|
D|-0-0-0-0-3-0-0-0-3-0-0-3-0-0-3-5-------------------------------------------|
A|---------------------------------------------------------------------------|
E|---------------------------------------------------------------------------|

e|---------------------------------------------------------------------------|
B|-----------------7-x-7-x-7-----------------7-x-7-x-7-----------------------|
G|-------------x-x-7-x-7-x-7-------------x-x-7-x-7-x-7-----------------------|
D|-7/9-9-9-9-9-x-x-7-x-7-x-7-7/9-9-9-9-9-x-x-7-x-7-x-7-----------------------|
A|-7/9-9-9-9-9-x-x-----------7/9-9-9-9-9-x-x---------------------------------|
E|-5/7-7-7-7-7-x-x-----------5/7-7-7-7-7-x-x---------------------------------|

e|---------------------------------------------------------------------------|
B|---------------------------------------------------------------------------|
G|-7/9-9-9-9--7/9-9-9-9-9-10-10-10--7/9-9-9-9--7/9-9-9-9-9-12-12-10----------|
D|-7/9-9-9-9--7/9-9-9-9-9-10-10-10--7/9-9-9-9--7/9-9-9-9-9-12-12-10----------|
A|-5/7-7-7-7--5/7-7-7-7-7-8--8--8---5/7-7-7-7--5/7-7-7-7-7-10-10-8-----------|
E|---------------------------------------------------------------------------|

e|---------------------------------------------------------------------------|
B|---------------------------------------------------------------------------|
G|---------7b9-7--4----------------------------------------------------------|
D|------------------7-5------------------------------------------------------|
A|---------------------------------------------------------------------------|
E|-0---0-----------------0---------------------------------------------------|

e|---------------------------------------------------------------------------|
B|---------------------------------------------------------------------------|
G|-12-12-12-12-12-12-12-12-12-12-12-12-12-12-12-12-9-------------------------|
D|-12-12-12-12-12-12-12-12-12-12-12-12-12-12-12-12-9-------------------------|
A|-10-10-10-10-10-10-10-10-10-10-10-10-10-10-10-10-7-------------------------|
E|---------------------------------------------------------------------------|            
Submit corrections


        Sikamikanico lessons Hard to play? Try these video lessons and learn fast Sikamikanico lessons
        
↑ Back to top | Tablatures and chords for acoustic guitar and electric guitar, ukulele, drums are parodies/interpretations of the original songs. You may use it for private study, scholarship, research or language learning purposes only