» » »

Red Hot Chili Peppers - Minor Thing Tabs

Artists:  A B C D E F G H I J K L M N O P Q R S T U V W X Y Z # 

Minor Thing Tabs

(ver. 2) Click to play this song!
Red Hot Chili Peppers
 Rating:
4/5 (4 votes)
    Minor Thing lessons Tabs too difficult? Try these video lessons and learn fast
                Red Hot Chili Peppers
Minor Thing
By the Way

Awesome song. Have fun. Rythym Not Shown.

Part One

e--2-------4-5-9-5---2-------9--10-12-10-------
B--2-------5-7-7-7---2-------9--10-10-10-------
G--2-------6-7-7-7---2-------9--11-11-11-------
D--4-------6-7-7-7---4-------11-12-10-12-------
A--4-------4-5-5-5---4-------11-12-12-12-------
E--2-----------------2-------9--10-10-10-------
  
Part Two

e--9--------16-17-------9--------16-17---------
B--10-------17-19-------10-------17-19---------
G--11-------18-19-------11-------18-19---------
D--11-------18-19-------11-------18-19---------
A--9--------16-17-------9--------16-17---------
E----------------------------------------------

Part Three

e-------------17--19---------------------------
B--14---------17--19---------------------------
G--14------------------------------------------
D----------------------------------------------
A----------------------------------------------
E----------------------------------------------
Strum 16th notes

Solo w/ distortion and reverb

e--/14-----------------------------------------
B-------14-17----------------14-17-------------
G-------------14------13b----------13b---------
D----------------1414----1616----------1616----
A----------------------------------------------
E----------------------------------------------

e----------------------------------------------
B--14--------14-17------14---------------------
G-----13b------------------14------------------
D---------16-------16-16------16/18-1614-------
A---------------------------------------1614---
E----------------------------------------------

Outro w/ distortion and reverb

e--------------------|------------------------
B--------------------|------------------------
G--------------------|------------------------
D-----------14-16----|------16-18-------------
A-14---1414-------16-|--14--------16^---------
E--------------------|------------------------

e--------------------------------------------
B--------------------------------------------
G--------------------------------------------
D----14--------------------------------------
A-14----16^-16-------------------------------
E--------------------------------------------

Repeat those licks until the end.
            
Submit corrections

↑ Back to top | Tablatures and chords for acoustic guitar and electric guitar, ukulele, drums are parodies/interpretations of the original songs. You may use it for private study, scholarship, research or language learning purposes only