» » »

Red Hot Chili Peppers - Get Up And Jump Bass

Artists:  A B C D E F G H I J K L M N O P Q R S T U V W X Y Z # 

Get Up And Jump Bass

(ver. 3) Click to play this song!
Red Hot Chili Peppers
 Rating:
4/5 (4 votes)
                Red Hot Chili Peppers
Get Up And Jump

  s p s s p s s p s s p s s p
G--------------------------------
D---5-----3-----5-----3-----3h5--
A--------------------------------
E-3---x-x---x-x---x-x---x-x------

  s p s s p s s p s s p s s p
G--------------------------------
D---5-----3-----5-----3-----2h3--
A--------------------------------
E-3---x-x---x-x---x-x---x-x------

  s p s s p s s p s s p s s p
G--------------------------------
D---5-----3-----5-----3-----3h5--
A--------------------------------
E-3---x-x---x-x---x-x---x-x------

  s p s s p s s p s s p s p   s s 
G----------------------------------
D---5-----3-----5-----3---2h3------
A----------------------------------
E-3---x-x---x-x---x-x---x-----0-3--

And so on.
            
Submit corrections

↑ Back to top | Tablatures and chords for acoustic guitar and electric guitar, ukulele, drums are parodies/interpretations of the original songs. You may use it for private study, scholarship, research or language learning purposes only