» » »

Red Hot Chili Peppers - Coffee Shop Tabs

Artists:  A B C D E F G H I J K L M N O P Q R S T U V W X Y Z # 

Coffee Shop Tabs

(ver. 4) Click to play this song!
Red Hot Chili Peppers
 Rating:
4.1/5 (31 vote)

 Coffee Shop lessons Tabs too difficult? Try these video lessons and learn fast
 
                [Verse]
(Guitar 1)
e|-------------------------------|-------------------------------|
B|-------------------------------|-------------------------------|
G|-------------------------------|-------------------------------|
D|-2-----------2---------------2-|-2-----------2---------------2-|
A|-2-----------2---------------2-|-2-----------2---------------2-|
E|-0---0-0-0-0-0---0-0-0-0-0-0-0-|-0---0-0-0-0-0---0-0-0-0-0-0-0-|
   
(Guitar 2)
e|-------------------------------|---------------------x-121212--|
B|-------------------------------|---------------------x-121212--|
G|-------------------------4--3--|---------------------x-121212--|
D|-------------------------2--2--|-------------2/----------------|
A|-------------------------------|-------------------------------|
E|-------------------------------|-------------------------------|


[Chorus]
e|-----------------------------------------|---------------------------0-------------|
B|-----------------------------------------|---------------------------0-------------|
G|------------------------------/99999999--|-----------------------------------------|
D|-7-----7--x-x5--5-----2----2--/99999999--|-7-----7--x-x10-10-----------------------|
A|-7-----7--x-x5--5-----2----2--/77777777--|-7-----7--x-x10-10----2------------------|
E|-5-----5--x-x3--3-----0----0-------------|-5-----5--x-x8--8-----0------------------|
   
e|-----------------------------------------|-----------------------------------------|
B|-----------------------------------------|-----------------------------------------|
G|-6-----6-----4--4-----3-----3-----4--4---|-3-----3---------------------------------|
D|-7-----7--x-x5--5-----4-----4--x-x5--5---|-4-----4--x-x10-10----7--/7-/9-/10/12/14-|
A|-7-----7--x-x5--5-----4-----4--x-x5--5---|-4-----4--x-x10-10-----------------------|
E|-5-----5--x-x3--3-----2-----2--x-x3--3---|-2-----2--x-x8--8-----5--/5-/7-/8-/10/12-|


[Bridge - Part 1]
e|-12-12-------------------12-12-----x15x15|-12-12-------------------12-12-----------|
B|-12-12-------------------12-12-----x15x15|-12-12-------------------12-12-----------|
G|-12-12-------------------12-12-----------|-12-12-------------------12-12-----------|
D|-----------------------------------------|-----------------------------------------|
A|-----------------------------------------|-----------------------------------------|
E|-----------------------------------------|-----------------------------------------|(x2)
  
[Bridge - Part 2]
e|-----------------------------------------|-----------------------------------------|
B|-----------------------------------------|----------------------------7--x6--------|
G|---9-x7-x6--7-------------------5------7-|---9-x7-x6--7------------6---------7p5p0-|
D|---------------5---7br-5----5h7----7h9---|---------------4----5--------------------|
A|-7-----------------------7---------------|-7---------------------------------------|
E|-----------------------------------------|-----------------------------------------|

e|-----------------------------------------|-----------------------------------------|
B|-----------------------------------------|-----------------------------------------|
G|---9-x7-x6--7------------12/13--14-------|---9-x7-x6--7-----13----12----11----10---|
D|-------------------------11/12--12-------|------------------13----12----11----10---|
A|-7---------------------------------------|-7-------------7--11----10----9-----8----|
E|---------------3----0--------------------|-----------------------------------------|


[Bridge - Part 3]
e|-----------------------------------------------|-----------------------------------------------|
B|-----------------------------------------------|-----------------------------------------------|
G|-9--9--9--9--9--9--9--9--9--9--9--9--9--9--9--9|-9/11-11-11-11-11-11-11-11-11-11-11-11-11-11-11|
D|-9--9--9--9--9--9--9--9--9--9--9--9--9--9--9--9|-9/11-11-11-11-11-11-11-11-11-11-11-11-11-11-11|
A|-7--7--7--7--7--7--7--7--7--7--7--7--7--7--7--7|-7/9--9--9--9--9--9--9--9--9--9--9--9--9--9--9-|
E|-----------------------------------------------|-----------------------------------------------|

e|-----------------------------------------------|-----------------------------------------------|
B|-----------------------------------------------|-----------------------------------------------|
G|11/13-13-13-13-13-13-13-13-13-13-13-13-13-13-13|13/15-15-15-15-15-15-15-15-15-15-15-15-15-15-15|
D|11/13-13-13-13-13-13-13-13-13-13-13-13-13-13-13|13/15-15-15-15-15-15-15-15-15-15-15-15-15-15-15|
A|9-/11-11-11-11-11-11-11-11-11-11-11-11-11-11-11|11/13-13-13-13-13-13-13-13-13-13-13-13-13-13-13|
E|-----------------------------------------------|-----------------------------------------------|


[Outro]
(Guitar 1)
e|-------------------------------|-------------------------------|
B|-------------------------------|-------------------------------|
G|-------------------------------|-------------------------------|
D|-2-----------2---------------2-|-2-----------2---------------2-|
A|-2-----------2---------------2-|-2-----------2---------------2-|
E|-0---0-0-0-0-0---0-0-0-0-0-0-0-|-0---0-0-0-0-0---0-0-0-0-0-0-0-|

(Guitar 2)
e|-------------------------------|-------------------------------|
B|------------------------/15----|------------------------/15----|
G|-------------------------------|---------------------------14--|
D|---------------------------14--|-------------------------------|
A|-------------------------------|-------------------------------|
E|-------------------------------|-------------------------------|
            
Submit corrections


        Coffee Shop lessons Hard to play? Try these video lessons and learn fast Coffee Shop lessons
        
↑ Back to top | Tablatures and chords for acoustic guitar and electric guitar, ukulele, drums are parodies/interpretations of the original songs. You may use it for private study, scholarship, research or language learning purposes only