» » »

Red Hot Chili Peppers - City Of Angels Tabs

Artists:  A B C D E F G H I J K L M N O P Q R S T U V W X Y Z # 

City Of Angels Tabs

(ver. 2) Click to play this song!
Red Hot Chili Peppers
 Rating:
3.3/5 (6 votes)

 City Of Angels lessons Tabs too difficult? Try these video lessons and learn fast
 
                (Intro)
I had figured out this song, listen to the album. this is right

e|-----------------------------------------------------|
B|-3---------3-----------------------------------------|
G|-------2-----2--------------------3------------------|
D|----4----4--------------------4-----4---4-2----------|
A|-5--------------4-2---------4---4-----------5-2------|
E|--------------------5-4---2--------------------------|

e|--------------------------------------------------------|
B|------------3h5p3---------------------------------------|
G|--------2---------2----------------------3--------------|
D|-----4----4-----------4/6-6--------4--------4---4-2-----|
A|-4/5---5--------------5/7-6-----4-----4-------------5-2-|
E|-----------------------------2--------------------------|

e|--------------------------------------------------------|
B|------------3-------------------------------------------|
G|--------2-----2----------------------3------------------|
D|-----4----4--------------------4--------4---4-2---------|
A|-4/5---5--------4-2---------4-----4-------------5-2-----|
E|--------------------5-4--2------------------------------|

e|-----------------------------------------------------------|
B|--------------3h5p3----------------------------------------|
G|---------2----------2---------------------3------3---------|
D|-----4------4-----------4/6-6--------4-------4------4------|
A|-4/5---5----------------5/7-7-----4-----4------4------4/7--|
E|-------------------------------2---------------------------|

this is just the intro but it be correct

U

W

e
            
Submit corrections


        City Of Angels lessons Hard to play? Try these video lessons and learn fast City Of Angels lessons
        
↑ Back to top | Tablatures and chords for acoustic guitar and electric guitar, ukulele, drums are parodies/interpretations of the original songs. You may use it for private study, scholarship, research or language learning purposes only